PrimaNota.ru - самый крупный в мире бесплатный архив песенных текстов, аккордов, табулатур и нот


Blues Pills - No Hope Left For Me - таба, видео

Регистрация Запомнить меня
Войти через:  Facebook Google Twitter Vk Yandex Mail.ru

Blues Pills - No Hope Left For Me - таба, видео

Печатать
Просмотров: 119
-----------------------------------------------------------------
               No Hope Left For Me - Blues Pills
-----------------------------------------------------------------

Tabbed By : Aeonoptic
e-mail: aeonoptic@gmail.com

Tuning: EADGBe

In 6/8

Verse/intro chords:  
  Bm      Em    F#m  
E|7------|7-----9----|
B|7------|8-----10---|
G|7------|9-----11---|
D|9------|9-----11---|
A|9------|7-----9----|
E|7------|-----------|

A second guitar plays B minor pentatonic notes
with reverb and delay in the background

Bm             Em         F#m      Bm    
Lonesomeness is   killing me
                        Em    F#m    Bm  
and all my trouble deep inside
                     Em           F#m      Bm  
with a happy heart I could no longer stand
                    Em      F#m    Bm  
a glow of light, he made me smile
                   Em      F#m     Bm  
so he took me to a long lost place
                    Em      F#m    Bm  
I'd never ever seen before
                    Em        F#m    Bm  
with a weakness for his warm embrace
                               Em  
for a short time I thought that he would stay
  
  F#m  
E|-------|
B|-------|
G|-------|
D|-------|
A|--7-8-9|
E|7------|

Chorus
(arpeggiate throughout)
Bm                  Em  
I know you won't be far
           F#m                    Em  
I tried to go but you just let me fall
     Bm                             F#m  
If I could do it I would not change myself
           Em                            Bm   (1)
There's no easy way, got nothing left to say
                                            F#m  
When there is no relief, no hope for me, no signs
                Em                                Bm   (2)
Your words keep breaking me, they're only hurtful lies

  (1)      (2)
E|--------|-------------|
B|--------|-------------|
G|--------|-------------|
D|----7---|9p7---7------|
A|7/9---9\|----9---7\5--|
E|--------|------------7|

Verse:
Pain don't mind I wouldn't doubt
Have you also felt the same
Chaining up my heart and my mind
I wish i'd never let you in
My bitterness, and rightly so
No one could ever heal
Still you got me under your control
With the sick ways you got me to feel

  F#m  
E|-------|
B|-------|
G|-------|
D|-------|
A|--7-8-9|
E|7------|

Chorus
Bm                  Em  
I know you won't be far
           F#m                    Em  
I tried to go but you just let me fall
     Bm                             F#m  
If I could do it I would not change myself
           Em                            Bm   (1)
There's no easy way, got nothing left to say
                                            F#m  
When there is no relief, no hope for me, no signs
                Em                                Bm  
Your words keep breaking me, they're only hurtful lies
                    F#m   *                                     *E string root
I know you won't be far
            Bm  
just let me fall


Chords under solo:
Bm  , F#m  *, Bm  , Em  , Bm  , F#m  , Bm  , Em  

Solo:
                                                           (feedback)
E|12b14~~~~~~|12pbr14-------12br14p10-----|------15b17~~~~|----------12-10-----|
B|-----------|--------12~~------------12~~|12-15----------|----------------12~~|
G|-----------|----------------------------|---------------|--------------------|
D|-----------|----------------------------|---------------|--------------------|
A|-----------|----------------------------|---------------|--------------------|
E|-----------|----------------------------|---------------|--------------------|

E|10-9-10-9h10p9-------|-------------------|
B|---------------10-9\7|---------------/12\|
G|---------------------|9-7-9br11p7--------|
D|---------------------|------------9------|
A|---------------------|-------------------|
E|---------------------|-------------------|

(solo continues under using B Dorian Scale)

     Bm                             F#m  
If I could do it I would not change myself
           Em                            Bm   
There's no easy way, got nothing left to say
                                            F#m  
When there is no relief, no hope for me, no signs
                Em                                Bm  
Your words keep breaking me, they're only hurtful lies

| /  slide up
| \  slide down
| h  hammer-on
| p  pull-off
| ~  vibrato
| +  harmonic
| x  Mute note
Добавлено: 05.12.2015
Другие материалы по этой песне:
  • Аккорды и текст

Страница создана 05.12.2015
http://primanota.ru/blues-pills/no-hope-left-for-me-chords.htm
Привет, Гость.
Предлагаем пройти революционный курс по гитаре.
Подарок от PrimaNota.Ru, забирай!