PrimaNota.ru - самый крупный в мире бесплатный архив песенных текстов, аккордов, табулатур и нот


Blues Pills - Little Sun - таба, видео

Регистрация Запомнить меня
Войти через:  Facebook Google Twitter Vk Yandex Mail.ru

Blues Pills - Little Sun - таба, видео

Печатать
Просмотров: 286
-------------------------------------------------------------------------------
                             Little Sun - Blues Pills
-------------------------------------------------------------------------------
Tabbed by: Nico B.
E-mail: nicobava96@gmail.com

This tab is from the Rock Hard Festival's version, personally the best one..
It's in clean with middle-high gain and a bit of tremolo.

Tuning: D#
      
        G       D# Dm(4) Em  
e||-----5-|-----0---4----2---||
B||-----5-|-----0---5----2---||
G||-----6-|-----1---6----2---||
D||-----7-|-----2---6----4---||--> Main secquence, repeated all-over the song
A||-----7-|-----2---4----4---||
E||-2-4-5-|-4-2-0---4----2---||


The solo is a penthatonic on E


Then at minute 3:07 and 4:02 change to:

        C        D#       Em
e||-----5--|-----7--|-----9---||
B||-----7--|-----9--|-----10--||
G||-----7--|-----9--|-----11--|| Repeat twice
D||-----7--|-----9--|-----11--||
A||-2-4-5--|-4-5-7--|-5-7-9---||
E||-----5--|-----7--|-----9---||


Great band, worth to listen all day long, rnr

************************************

| /   slide up
| \   slide down
| h   hammer-on
| p   pull-off
| ~   vibrato
| +   harmonic
| x   Mute note
| b   Bend
| pb  Pre-bend
| br  Bend release
| pbr Pre-bend release
| brb Bend release bend

************************************
Добавлено: 02.10.2014
Другие материалы по этой песне:
  • Аккорды и текст

Страница создана 02.10.2014
http://primanota.ru/blues-pills/little-sun-chords.htm
Привет, Гость.
Предлагаем пройти революционный курс по гитаре.
Подарок от PrimaNota.Ru, забирай!