PrimaNota.ru - самый крупный в мире бесплатный архив песенных текстов, аккордов, табулатур и нот


Blues Pills - Aint No Change - таба, видео

Регистрация Запомнить меня
Войти через:  Facebook Google Twitter Vk Yandex Mail.ru

Blues Pills - Aint No Change - таба, видео

Печатать
Просмотров: 80
-----------------------------------------------------------------
                 Ain't No Change - Blues Pills
-----------------------------------------------------------------

Tabbed By : Aeonoptic
e-mail: aeonoptic@gmail.com

Tuning: EADGBe

  Gm7                                       Dm                                        Gm7
E|--------------------|--------------------|--------------------|--------------------|--------------------|
B|--------------------|--------------------|--------------------|--------------------|--------------------|
G|------3-------------|------3-------------|------3-------------|------3-------------|------3-------------|
D|3h5-5---5--5-5-5-5-5|3h5-5---5--5-5-5-5-5|3h5-5---5--5-5-5-5-5|3h5-5---5--5-5-5-5-5|3h5-5---5--5-5-5-5-5|
A|--------------------|--------------------|--------------------|--------------------|--------------------|
E|--------------------|--------------------|--------------------|--------------------|--------------------|

                       Dm
E|--------------------|--------------------|--------------------|
B|--------------------|--------------------|--------------------|
G|------3-------------|------3-------------|------3-------------|
D|3h5-5---5--5-5-5-5-5|3h5-5---5--5-5-5-5-5|3h5-5---5--5-5-5-5-5|
A|--------------------|--------------------|--------------------|
E|--------------------|--------------------|--------------------|

One guitar continues to play the riff under a solo

  Gm7
E|--------------------|------------|--------------3|------------|-----|-----|----------------|3~~|
B|--------------------|------------|------------3--|------------|-----|-----|3-6-6b8~~--6pbr8|---|
G|------3---3-5-5b7~~~|--3-5-5b7~~~|--3-5-5b7~-----|5pbr7-3-5---|5b7~~|5b7~~|----------------|---|
D|3h5-5---5-----------|5-----------|5--------------|----------5~|-----|-----|----------------|---|
A|--------------------|------------|---------------|------------|-----|-----|----------------|---|
E|--------------------|------------|---------------|------------|-----|-----|----------------|---|
 
E|--6-8-8b10~~~|--6-8-8b10-8b10~~|--6-8-8b10--8b10~-8pbr10~~~|6-8----|--------------|-----------------|
B|8------------|8----------------|8--------------------------|----8~~|----6---------|----6-------6b8~~|
G|-------------|-----------------|---------------------------|-------|5/7---7\5p3---|5/7---7\5p3------|
D|-------------|-----------------|---------------------------|-------|------------5~|-----------------|
A|-------------|-----------------|---------------------------|-------|--------------|-----------------|
E|-------------|-----------------|---------------------------|-------|--------------|-----------------|
 
E|-------------|-------------|-------------|-----------------|-------------|-------------|
B|----6--------|-------------|----6--------|----6-------6b8~~|----6--------|----6--------|
G|5/7---7\5p3--|-------------|5/7---7\5p3--|5/7---7\5p3------|5/7---7\5p3--|5/7---7\5p3--|
D|------------5|----3--------|------------5|-----------------|------------5|------------5|
A|-------------|3/5---5\3p1--|-------------|-----------------|-------------|-------------|
E|-------------|------------3|-------------|-----------------|-------------|-------------|

E|-------------|-------------|---------------|---------------|-------------|-------------|---------------|
B|----6--------|----6--------|----6-------6/8|----6-------6/8|----6--------|----6--------|----6-------6/8|
G|5/7---7\5p3--|5/7---7\5p3--|5/7---7\5p3----|5/7---7\5p3----|5/7---7\5p3--|5/7---7\5p3--|5/7---7\5p3----|
D|------------5|------------5|---------------|---------------|-------------|-------------|---------------|
A|-------------|-------------|---------------|---------------|-------------|-------------|---------------|
E|-------------|-------------|---------------|---------------|-------------|-------------|---------------|
 
E|---------------|-------------|
B|----6-------6/8|----6--------|
G|5/7---7\5p3----|5/7---7\5p3--|
D|---------------|------------5|
A|---------------|-------------|
E|---------------|-------------|

Gm7
There's a change in the sea
But I know there ain't no change in me
Don't you hide stay with me big moon
Keep on going what more can you do

Cm          Dm   G5    F5 G5
'Cause everybody wants to change
              Cm           Dm        G5   F5 G5         
You've got to stand up and face your fate
               Cm             Dm
There ain't no way to save it all
          G5     F5        G5
Now we're backed against a wall
           Cm      F        Gm
It doesn't matter, it's too late

E|---------------|-----------------|---------------|---------------|
B|----6----------|----6-------6b8~~|----6----------|---------------|
G|5/7---7\5p3----|5/7---7\5p3------|5/7---7\5p3----|---------------|
D|------------5~~|-----------------|------------5~~|----3----------|
A|---------------|-----------------|---------------|3/5---5\3p1----|
E|---------------|-----------------|---------------|------------3~~|

Gm7 
Oceans dying, people are crying
Government is spying on you and me
Wake up darling, darling can't you see
I'm begging you to come, come and set me free

Cm          Dm   G5    F5 G5
'Cause everybody wants to change
              Cm           Dm        G5   F5 G5         
You've got to stand up and face your fate
               Cm             Dm
There ain't no way to save it all
          G5     F5        G5
Now we're backed against a wall
           Cm      F        Gm
It doesn't matter, it's too late

  Gm7                                       Dm                                        Gm7
E|--------------------|--------------------|--------------------|--------------------|--------------------|
B|--------------------|--------------------|--------------------|--------------------|--------------------|
G|------3-------------|------3-------------|------3-------------|------3-------------|------3-------------|
D|3h5-5---5--5-5-5-5-5|3h5-5---5--5-5-5-5-5|3h5-5---5--5-5-5-5-5|3h5-5---5--5-5-5-5-5|3h5-5---5--5-5-5-5-5|
A|--------------------|--------------------|--------------------|--------------------|--------------------|
E|--------------------|--------------------|--------------------|--------------------|--------------------|

                       Dm
E|--------------------|--------------------|--------------------|
B|--------------------|--------------------|--------------------|
G|------3-------------|------3-------------|------3-------------|
D|3h5-5---5--5-5-5-5-5|3h5-5---5--5-5-5-5-5|3h5-5---5--5-5-5-5-5|
A|--------------------|--------------------|--------------------|
E|--------------------|--------------------|--------------------|

One guitar continues to play the riff under the vocals

Gm7              Dm         Cm
There's a change in the sea
Dm              Gm7
But there ain't no change in me
               Dm
Time has come, soon too late
Cm                     Gm7
Don't want to know our fate

Progression continues over 2nd solo

  Gm7        Dm             Cm  Dm     Gm7                                Dm
E|----------|--------------|----------|-----|------------3---------------|------------3------|
B|3-6-6b8~~~|3-6pbr8-------|----------|-----|3-6p3---3-6----3-6p3---3----|3-6p3---3-6---6b8~~|
G|----------|--------5pbr7~|3-5-5b7~~~|-----|------5--------------5---5b7|------5------------|
D|----------|--------------|----------|-----|----------------------------|-------------------|
A|----------|--------------|----------|-----|----------------------------|-------------------|
E|----------|--------------|----------|-----|----------------------------|-------------------|

  Cm             Dm               Gm7
E|--------------3----------------|--------------3------------|------------3--------------|
B|3-6p3---3-6b8----3-6p3---3-----|3-6p3---3-6b8---6b8~~-6b8~~|6p3---3-6b8----6p3---3-6b8~|
G|------5----------------5---5b7~|------5--------------------|----5--------------5-------|
D|-------------------------------|---------------------------|---------------------------|
A|-------------------------------|---------------------------|---------------------------|
E|-------------------------------|---------------------------|---------------------------|
 
  Dm                            Cm              Dm           Gm7
E|--------------3--------------|--------------3-------------|--------------3-------------|
B|3-6p3---3-6b8----6p3---3-----|3-6p3---3-6b8----6p3---3-6b8|3-6p3---3-6b8----6p3---3----|
G|------5--------------5---5b7~|------5--------------5------|------5--------------5---5b7|
D|-----------------------------|----------------------------|----------------------------|
A|-----------------------------|----------------------------|----------------------------|
E|-----------------------------|----------------------------|----------------------------|

                        Dm                             Cm                  Dm
E|---------------------|------------------------------|-----------------------------------|
B|6b8-6b8-6b8-6b8-6b8~~|18b20-18b20-18b20-18b20-18b20~|18-15-18-15-18b20~--15-18-15-18b20~|
G|---------------------|------------------------------|-----------------------------------|
D|---------------------|------------------------------|-----------------------------------|
A|---------------------|------------------------------|-----------------------------------|
E|---------------------|------------------------------|-----------------------------------|
 
  Gm7
E|---------------15---\|
B|15-18-15-18b20-18b20\|
G|---------------------|
D|---------------------|
A|---------------------|
E|---------------------|

Gm7
The last piece of hope is exiting my mind
We just run around in circles,
Feels like everybody's blind
When will you wake up?
You think you are free?
They're gonna wire tap your telephones
And tax the air you breathe
  
  Gm7
E|----------------------------|8b10~~~~|8b10~~-8b10~~-8b10~~|8b-6-----|------------------------|
B|-------------------------8~~|--------|--------------------|-----8~~~|6h8p6\5--5h6p5\3-3h5p3\1|
G|-------------------3-5/7----|--------|--------------------|---------|------------------------|
D|---------------3-5----------|--------|--------------------|---------|------------------------|
A|-----1---1-3-5--------------|--------|--------------------|---------|------------------------|
E|12\----3--------------------|--------|--------------------|---------|------------------------|
 
E|----------|---------------|----------------|-----------------------|---15-------------------|
B|----------|---------------|5-3-------------|-----------------------|15----15-18b20~~-18b20~~|
G|5/9-7-3~~~|5b7~~~--7b10~~~|----5--3-5p3----|12-14-15-14-15p14-12~~~|------------------------|
D|----------|---------------|-------------5~/|-----------------------|------------------------|
A|----------|---------------|----------------|-----------------------|------------------------|
E|----------|---------------|----------------|-----------------------|------------------------|

Cm        Dm     G5 F5  G5
There's a change in the sea
Cm        Dm       G5     F5 G5
But there ain't no change in me
Cm        Dm    G5  F5  G5
Time has come, soon too late
Cm         Dm G5   F5  G5
Don't want to know our fate

E|18b20~~-18~~|--------------------------|---------18b20~~~|-----------------------|
B|------------|15------------------------|18b20~~----------|18b20~~-18b20~~-18b20~~|
G|------------|---17b19~~-17b19~~-17b19~~|-----------------|-----------------------|
D|------------|--------------------------|-----------------|-----------------------|
A|------------|--------------------------|-----------------|-----------------------|
E|------------|--------------------------|-----------------|-----------------------|
                                             
E|---------------------|----------------------|---------|---------|-------------------------|
B|6h8p6\5-5h6p5\3h5p3\1|--3-------------------|---------|---------|---------------------8~~~|
G|---------------------|5---3---3-5br7br7p3---|12--10-12|12--10-12|---------------3-5/7-----|
D|---------------------|------5-------------5~|12--10-12|12--10-12|-----------3-5-----------|
A|---------------------|----------------------|10--8--10|10--8--10|1---1-3--5---------------|
E|---------------------|----------------------|---------|---------|--3----------------------|

| /  slide up
| \  slide down
| h  hammer-on
| p  pull-off
| ~  vibrato
| +  harmonic
| x  Mute note
Добавлено: 20.02.2016
Вам также может быть интересно:
Другие материалы по этой песне:
  • Аккорды и текст

Страница создана 20.02.2016
http://primanota.ru/blues-pills/aint-no-change-chords.htm
Привет, Гость.
Предлагаем пройти революционный курс по гитаре.
Подарок от PrimaNota.Ru, забирай!