PrimaNota.ru - самый крупный в мире бесплатный архив песенных текстов, аккордов, табулатур и нот


Blues Brothers - Whos Makin Love - бас-таба, видео

Регистрация Запомнить меня
Войти через:  Facebook Google Twitter Vk Yandex Mail.ru

Blues Brothers - Whos Makin Love - бас-таба, видео

Печатать
Просмотров: 146
Song: Who's Makin' Love?
Band: Blues Brothers
Album: The Definitive Collection

Im surprised no has tabbed this. This is fun to play!
Hope this helps! just to let you all know Donald "Duck" Dunn improvises on the pre 
and bridges. So I gave you the basic chords so you can improvise.
Hope this helps!


---------|
---------|Pick up note.
-----3-5-|
---------|

Intro/Verse\par
---------------------------------|---------1---1-3---3-1-----------|
-3---3-----------3---------------|-3---3-------------------3-------|
---------5-3-5---------------3-5-|-----------------------------5---|6x
---------------------------------|---------------------------------|

Pre Chorus
----------------|----------------|----------------|----------------|
----------------|----------------|----------------|----------------|
-5-5-5-5-5-5-5-5|----------------|----------------|-1-1-1-1-3------|
----------------|-5-5-5-5-5-5-5-5|-3-3-3-3-3-3-3-3|----------------|


Chorus
---------------------------------|---------1---1-3---3-1-----------|
-3---3-----------3---------------|-3---3-------------------3-------|
---------5-3-5---------------3-5-|-----------------------------5---|4x
---------------------------------|---------------------------------|

Verse2
---------------------------------|---------1---1-3---3-1-----------|
-3---3-----------3---------------|-3---3-------------------3-------|
---------5-3-5---------------3-5-|-----------------------------5---|4x
---------------------------------|---------------------------------|

Pre Chorus
----------------|----------------|----------------|----------------|
----------------|----------------|----------------|----------------|
-5-5-5-5-5-5-5-5|----------------|----------------|-1-1-1-1-3------|
----------------|-5-5-5-5-5-5-5-5|-3-3-3-3-3-3-3-3|----------------|

Chorus
---------------------------------|---------1---1-3---3-1-----------|
-3---3-----------3---------------|-3---3-------------------3-------|
---------5-3-5---------------3-5-|-----------------------------5---|4x
---------------------------------|---------------------------------|

Bridge 2x
--------|--------|
--------|--------|
--------|--------|
1-------|4-------|

----------------|----------------|----------------|----------------|
----------------|----------------|----------------|----------------|
-3-3-3-3-3-3-3-3|-4-4-4-4-4-4-4-4|----------------|-6-6-6-6-3------|
----------------|----------------|-4-4-4-4-4-4-4-4|----------------|

Verse2
---------------------------------|---------1---1-3---3-1-----------|
-3---3-----------3---------------|-3---3-------------------3-------|
---------5-3-5---------------3-5-|-----------------------------5---|4x
---------------------------------|---------------------------------|

Pre Chorus
----------------|----------------|----------------|----------------|
----------------|----------------|----------------|----------------|
-5-5-5-5-5-5-5-5|----------------|----------------|-1-1-1-1-3------|
----------------|-5-5-5-5-5-5-5-5|-3-3-3-3-3-3-3-3|----------------|


Chorus
---------------------------------|---------1---1-3---3-1-----------|
-3---3-----------3---------------|-3---3-------------------3-------|
---------5-3-5---------------3-5-|-----------------------------5---|4x
---------------------------------|---------------------------------|

Bridge 2 4x
--------|--------|
3------3|--------|
--------|5-------|
--------|--------|

---------------|---------------|
3-3-3-3-3-3-3-3|---------------|
---------------|5-5-5-5-5-5-5-5|4x
---------------|---------------|

Chorus
---------------------------------|---------1---1-3---3-1-----------|
-3---3-----------3---------------|-3---3-------------------3-------|
---------5-3-5---------------3-5-|-----------------------------5---|6x
---------------------------------|---------------------------------|

---------------------------------|
-3---3-----------3---------------|
---------5-3-5---------------3-5-|
---------------------------------|
Добавлено: 04.07.2012
Другие материалы по этой песне:
  • Аккорды и текст

Страница создана 04.07.2012
http://primanota.ru/blues-brothers/whos-makin-love-chords.htm
Привет, Гость.
Предлагаем пройти революционный курс по гитаре.
Подарок от PrimaNota.Ru, забирай!