PrimaNota.ru - самый крупный в мире бесплатный архив песенных текстов, аккордов, табулатур и нот


Blues Brothers - Soul Finger - текст песни, бас-таба, видео

Регистрация Запомнить меня
Войти через:  Facebook Google Twitter Vk Yandex Mail.ru

Blues Brothers - Soul Finger - текст песни, бас-таба, видео

Печатать
Просмотров: 205
band: Blues Brothers
song: Soul Finger
originally done by: Bar-Kays

intro
G---------------|
D----------5/---|
A--55-55-5------|
E---------------|

verse
G----------3---1---|
D--------5---3-----|
A--3--3------------|
E------------------|

chorus
G---------------------------|
D--5-5-4-3--------5-6-7-8---|
A---------------------------|
E---------------------------|

I think this is how they do it, but you can put fills in it like I do.
Example:

chorus
G--------------------------------------------|
D---------5-5-4-3------------------5-6-7-8---|
A--------------------------------------------|
E--3-3-33------------00-1-2-3-3-33-----------|

email me any comments or questions to catkiller44@yahoo.com
Добавлено: 22.06.2012
Другие материалы по этой песне:
  • Аккорды и текст

Страница создана 22.06.2012
http://primanota.ru/blues-brothers/soul-finger-chords.htm
Привет, Гость.
Предлагаем пройти революционный курс по гитаре.
Подарок от PrimaNota.Ru, забирай!