PrimaNota.ru - самый крупный в мире бесплатный архив песенных текстов, аккордов, табулатур и нот


Blues Brothers - Rubber Biscuit - текст песни, бас-таба, видео

Регистрация Запомнить меня
Войти через:  Facebook Google Twitter Vk Yandex Mail.ru

Blues Brothers - Rubber Biscuit - текст песни, бас-таба, видео

Печатать
Просмотров: 171
Авторы: Adam R. Levy, Charles Johnson

band: Blues Brothers
song: Rubber Biscuit
originally done by: The Chips

main riff
G-----------------|
D-------------4---|
A-----0--2--4-----|
E--2--------------|

end
G----------------------------------|
D--4-------4-------4-------4-------|
A----------------------------------|
E----------------------------------|

G----------------------|
D--4---4---6-8-6---4---|
A----------------------|
E----------------------|

email any comments or questions to me at catkiller44@yahoo.com
Добавлено: 03.07.2012
Другие материалы по этой песне:
  • Аккорды и текст

Страница создана 15.05.2012
http://primanota.ru/blues-brothers/rubber-biscuit-chords.htm
Привет, Гость.
Предлагаем пройти революционный курс по гитаре.
Подарок от PrimaNota.Ru, забирай!