PrimaNota.ru - самый крупный в мире бесплатный архив песенных текстов, аккордов, табулатур и нот


Blueneck - Oig - аккорды и текст, видео

Регистрация Запомнить меня
Войти через:  Facebook Google Twitter Vk Yandex Mail.ru

Blueneck - Oig - аккорды и текст, видео

Печатать
Просмотров: 112
Oig
Blueneck
-------------------------------------------------------------------------------
                             Oig - Blueneck
-------------------------------------------------------------------------------
Tab + Lyric "rewrote" by: Nima Bakhtiari
E-mail: Nima.bakhtiari@mail.com

Scale: Gm - [G] A Bb c d eb f g
             1  2 3  4 5 6  7 8
             m  5 M  m m M  M m

Tuning: -1/2 step down - Eb Ab Db Gb Bb eb

[chords]
Gm:    466444
Eb7:   0XX444 or X76444
Csus2: X46644


     Gm                                       Eb
eb|------4---------4---|-----4---------4----|-----4---------4----|-----4---------4----|
Bb|--------------------|--------------------|--------------------|--------------------|
Gb|--------------------|--------------------|--------------------|--------------------|
Db|----6---6-----6---6-|---6---6-----6---6--|---6---6-----6---6--|---6---6-----6---6--| 
Ab|--------------------|--------------------|--------------------|--------------------|
Eb|---4----------------|-4------------------|-0------------------|-0------------------|

(change this arpeggios with Bass Tone of chords)[These setup are for one guitar only*]
*while you're playing chords don't lose treble notes on Gm first finger bar you.re holding.

            Gm          
There is true un-count still love
            Eb
about to fall in there's no where at all
            Gm
push it out and there's no through all
            Eb
start it out then there is no where to run

Csus2
Listen dark and don't ses
Eb7
hidden down the bedo
Csus2
This is like eternal
Eb7
and me like a fellow
Csus2
I'm trying to believe the middle life...
Eb7
I'm trying to believe the middle life...
Csus2
...will fall
Eb7
...will fall...though them all...

back to verse chords plus guitar line:
eb|--------------------|--------------------|--------------------|--------------------|
Bb|--------------------|--------------------|--------------------|--------------------|
Gb|-8\4-3--/9-8--------|-8\4-3--/8-9--------|-8\4-3--/9-8--------|-8\4-3--/6-3--------|
Db|--------------------|--------------------|--------------------|--------------------| 
Ab|--------------------|--------------------|--------------------|--------------------|
Eb|--------------------|--------------------|--------------------|--------------------|

(you can play riffs out of arpeggios..)
            Gm
Push us out without It's craze like a doll
Eb
first steps in the middle life 
Csus2
and a dark looks like a car
      Gm
and a long sleep with count too long
            Eb
may is not our town turn them all


Csus2
Listen dark and don't ses
Eb7
hidden down the bedo
Csus2
This is like eternal
Eb7
and me like a fellow
Csus2
I'm trying to believe the middle life...
Eb7
I'm trying to believe the middle life...
Csus2
...will fall
Eb7
...will fall...though them all...

Gm
though all...
Eb7
though all...
though all...
though all...
though all...
though all... [Chords: Gm - Eb - Csus2]*hold them as the main natural chords.

back to the First arpeggios: Gm - Eb7
Just like a doll...
just like a doll...
Добавлено: 27.05.2016
Другие материалы по этой песне:
  • Аккорды и текст

Страница создана 27.05.2016
http://primanota.ru/blueneck/oig-chords.htm
Привет, Гость.
Предлагаем пройти революционный курс по гитаре.
Подарок от PrimaNota.Ru, забирай!