PrimaNota.ru - самый крупный в мире бесплатный архив песенных текстов, аккордов, табулатур и нот


Bluejay - Black Cherry Blood - таба, видео

Регистрация Запомнить меня
Войти через:  Facebook Google Twitter Vk Yandex Mail.ru

Bluejay - Black Cherry Blood - таба, видео

Печатать
Просмотров: 89
Black Cherry Blood

www.bluejaysongs.com
bluejay.bandcamp.com
facebook.com/bluejaymusic

Standard Tuning
CAPO 6

Main Riff
---------0-----------------------------------|
---1---1---1---1-------0---------------------|
-2---2-------2---2---2---2-------0-----------|
-------------------3-------2---0-------------|
-----------------------------3-----3-2-0-----|
---------------------------------------------|

Two hundred years
Drinking and walking
I drift by the moon
You gave me champagne
While I was avoiding the sun

100000 G  Am  Em

Don't let me say
I never really thought I'd feel this way
I never felt so cool
It's different the second time with you
I never felt so bad
Zydeco dancing in your head
will settle down soon

Main Riff

Now you're on the trip.
You said,
“Yeah I'm really tripping now”
But watch the café, we're coming up on Du Monde,
There's blood on your lip.

--------------------|
--------------------|
--------------------|         x3
-1-2----------------|
-----2-1-------1-1--|
---------2-1-0------|


--------|
--------|
--------|     G  Am  Em  100000
-1------|
---1-3--|
--------|

100000 G  Am  Em    (end on Am)

The tarot reader
separated astronomy from astrology,
she's a telescope.
We read Aristotle over sangria
and broke from the prison of the southern bank
for a minute of free trade—
She eventually declined our ride—
But I think that she'll believe again
in free land

D7 ->

E  Am

Straight into Orleans
Hand me those strings from my gig bag
How am I to know if you'd get in the way?
Black Cherry Blood, you're sweet
but would you get in the way?

Main Riff

Don't let me drain you
and don't drain me in
my day sleep

100000 G  Am  Em

And I would save this sucking night
with a cliché
“I never felt so cool”
It's different the second time with you
I never felt so rad
I just think that I'll regret doing this to you

D7 ->

E     Am

Straight out of Orleans
I know you wanna go with me up river
How am I to know if you'd get in the way?
Black Cherry Blood, I need to know if you'd get in the way

                               E  Am (end on Am)
Or if I'd get in the way.

---------------------------------------------|
-----------------2->5------------------------|
-----------0-----2->0------------------------|
---------0-------2->4-4-5-4-0----------------|
-3-2---2-----0----------------0--------------|
-----3---------0----------------0------------|


-------------------------------------4-5-4-0---|
2->5-----------2->5-------------2->5-----------|
2->0-----------2->0-------------2->0-----------|
2->4-4-5-5-----2->4-4-5-4-0-----2->4-----------|
-----------0-----------------0-------------0---|
-------------0----------------0----------------|
Добавлено: 11.10.2013
Другие материалы по этой песне:
  • Аккорды и текст

Страница создана 11.10.2013
http://primanota.ru/bluejay/black-cherry-blood-chords.htm
Привет, Гость.
Предлагаем пройти революционный курс по гитаре.
Подарок от PrimaNota.Ru, забирай!