PrimaNota.ru - самый крупный в мире бесплатный архив песенных текстов, аккордов, табулатур и нот


Blue Rodeo - Seeker - аккорды и текст, видео

Регистрация Запомнить меня
Войти через:  Facebook Google Twitter Vk Yandex Mail.ru

Blue Rodeo - Seeker - аккорды и текст, видео

Печатать
Просмотров: 112
Seeker
Blue Rodeo
Author/Artist: Blue Rodeo
Title: Seeker
Album: Days In Between
Transcribed by: Radar
Email: radar@northcom.net


This is my first tab, so take it easy on me. If you have the album, it's =
better
to listen to the song. It's actually very simple.  Any suggestions would =
be=20
gladly appreciated.

Guitar
e|-2------3---2-----0-----------------------------------|
B|-3------3---3--------3--------------------------------|Intro
G|-2------2---2----------2------------------------------|
D|-0------0---0---0-------------------------------------|
A|-x------x---x-----------------------------------------|
E|-x------x---x-----------------------------------------|

Play intro twice=20



Guitar  r1
e|------------------------------------------------------|
B|------------------------------------------------------|
G|------------------------------------------------------|
D|-----0-----0-0----------------------------------------|
A|-0-2---0-2--------------------------------------------|
E|------------------------------------------------------|


D
You .....
         G                                A
Then you found there's nothing to find
               G                   D                 r1
It'll all come down to you in it's own ....

SAME CHORD PATTERN FOR REST OF SONG


CHORUS

             Bm             A       G     =20
G when will I see what you see
                 A                  D            Bm
You say it's got nothing to do with being worthy
          G A            D
When will I see what you see

LISTEN TO SONG TO GET THE WHOLE IDEA.   


TAB PLAYER by S.Perandini --Download your FREE copy!
More infos @ http://utenti.tripod.it/impsoftware/tp.htm
or http://www.sburlo.com/tp.htm
     
Добавлено: 03.10.2013
Другие материалы по этой песне:
  • Аккорды и текст

Страница создана 03.10.2013
http://primanota.ru/blue-rodeo/seeker-chords.htm
Привет, Гость.
Предлагаем пройти революционный курс по гитаре.
Подарок от PrimaNota.Ru, забирай!