PrimaNota.ru - самый крупный в мире бесплатный архив песенных текстов, аккордов, табулатур и нот


Blue Oyster Cult - Stone Of Love - текст песни, таба, видео

Регистрация Запомнить меня
Войти через:  Facebook Google Twitter Vk Yandex Mail.ru

Blue Oyster Cult - Stone Of Love - текст песни, таба, видео

Печатать
Просмотров: 145
Intro/Verse
e---------------------------------------------------------------------------|
b---------------------------------------------------------------------------|
g-------5-4-0------------5-4-0----------5-4-0------------5-4-0--------------|
d--7-------------3--3--------------7-------------3--3-----------------------|
a--7-------------3--3--------------7-------------3--3-----------------------|
E--5-------------1--1--------------5-------------1--1-----------------------|

e---------------------------|
b---------------------------|
g---7-----------------------|       x a whole bunch
d---7-----------4-----------|
a---5-----------4-----------|
E---------------2-----------|
Добавлено: 02.03.2012
Другие материалы по этой песне:
  • Аккорды и текст

Страница создана 02.03.2012
http://primanota.ru/blue-oyster-cult/stone-of-love-chords.htm
Привет, Гость.
Предлагаем пройти революционный курс по гитаре.
Подарок от PrimaNota.Ru, забирай!