PrimaNota.ru - самый крупный в мире бесплатный архив песенных текстов, аккордов, табулатур и нот


Blue Oyster Cult - Lips In The Hills - текст песни, таба, видео

Регистрация Запомнить меня
Войти через:  Facebook Google Twitter Vk Yandex Mail.ru

Blue Oyster Cult - Lips In The Hills - текст песни, таба, видео

Печатать
Просмотров: 172
Lips In The Hills-Blue Oyster Cult

INTRO
   Repeat 16 times using pick held close to tip
   
E|----------------------------------------------|
B|----------------------------------------------|
G|----------------------------------------------|
D|-----9-7-0------------------------------------|
A|----------------------------------------------|
E|----------------------------------------------|

------------------------BEGINING
    [E]             [B]   [C]    [D]    [C]    [B]       
E|----12------------|-----|-----|--10--|------------------|
B|------------------|-12--|-13--|------|--13-----12-------|
G|------------------|-----|-----|------|------------------|
D|------------------|-----|-----|------|------------------|
A|------------------|-----|-----|------|------------------|
E|------------------|-----|-----|------|------------------|

     [E]             [B]   [C]    [D]    [C]    [B]       
E|----12------------|-----|-----|--10--|------|---------------------|
B|------------------|-12--|-13--|------|--13--|--12--12--12 12 12---|
G|------------------|-----|-----|------|------|--12--12--12-12-12---|
D|------------------|-----|-----|------|------|---------------------|
A|------------------|-----|-----|------|------|---------------------|
E|------------------|-----|-----|------|------|---------------------|


INTRO SOLO

    
E|-----------------------|-----------------------------------------|
B|------------7----------|------------------------- ------5-4------|
G|----9~7~9----7--9------|-2-2-2--4-5-7-5-4-2--2-2-2--4-5-----4-0--|
D|-9--------9---9--------|-----------------------------------------|
A|-----------------------|-----------------------------------------|
E|-----------------------|-----------------------------------------|

E|-----------------------------------------------------------------|
B|-----------------------------------------------------------------|
G|------------0---------------------------------5----7'--7'5-------|
D|-2---2(0)--2--4-0---2(0)------------------5~7---7----------7-----|
A|--------------------------4-5-4-2--0-----------------------------|
E|--------------------------------------3--------------------------|

SINGING

    I am gripped, by what I cannot        tell  (bridge)
E|--------------------------------------|-------------------------------|
B|--------------------------------------|-------------------------------|
G|--------------------------------------|-------------------------------|
D|-----1(2)---1(2)----1(2)-----1(2)-----|--5--7~5--7-5---5--7~5--7-5----|
A|---2-------2-------2--------2---------|--5--7~5--7-5---5--7~5--7-5----|
E|-0-------0-------0--------0-----------|--3--5~3--5-3---3--5~3--5-3----|

    Have I slipped or have I merely        fell
    I've been tricked, my senses telling   lies  (bridge)
E|--------------------------------------|-------------------------------|
B|--------------------------------------|-------------------------------|
G|--------------------------------------|-------------------------------|
D|---1(2)----1(2)----1(2)-----1(2)------|--5--7~5--7-5---5--7~5--7-5----|
A|---2-------2-------2--------2---------|--5--7~5--7-5---5--7~5--7-5----|
E|-0-------0-------0--------0-----------|--3--5~3--5-3---3--5~3--5-3----|


  I've been (stiffened?) by..........     cries (bridge) Flanger
E|--------------------------------------|-------------------------------|
B|--------------------------------------|---------3---------3-----------|
G|--------------------------------------|---2-----0----2----0-----------|
D|-----1(2)---1(2)----1(2)-----1(2)-----|---2-----0----2----0-----------|
A|---2-------2-------2--------2---------|---0----------0----------------|
E|-0-------0-------0--------0-----------|---------3---------3-----------|

     [A] Flanger       [A] Flanger    [G] Flanger
   Up in the hills     an apparition
E|-----------------|------------------------------|
B|-------------0---|------3-----------------------|
G|-2---------2-0---|---2--0-----------------------|
D|-2---------2-0---|---2--0-----------------------|
A|-0---------0-----|---0--------------------------|
E|-------------3---|------3-----------------------|


     [A] Flanger       [A] Flanger    [G] Flanger
   Filling me          with superstition
E|-----------------|------------------------------|
B|-------------0---|------3-----------------------|
G|-2---------2-0---|---2--0-----------------------|
D|-2---------2-0---|---2--0-----------------------|
A|-0---------0-----|---0--------------------------|
E|-------------3---|------3-----------------------|


   A fiery night, the night that I saw,
   the night that I saw, the night that I saw
E|------------------------------------------------|
B|------------------------------------------------|
G|-2----------------------------------------------|
D|-2----------------------------------------------|
A|-0----------------------------------------------|
E|------------------------------------------------|


    chorus
    Lips in the hills, lips in the      hills
E|------------------------------------|-----------|
B|------------------------------------|-----------|
G|------------------------------------|-9---------|
D|--5----7~5---7-5-----5--7~5--7-5----|-9---------|
A|--5----7~5---7-5-----5--7~5--7-5----|-7---------|
E|--3----5~3---5-3-----3--5~3--5-3----|-0---------|

REPEAT VERSE

OUTRO

      [E]             [B]   [C]    [D]    [C]    [B]       
E|----12------------|-----|-----|--10--|------------------|
B|------------------|-12--|-13--|------|--13-----12-------|
G|------------------|-----|-----|------|------------------|
D|------------------|-----|-----|------|------------------|
A|------------------|-----|-----|------|------------------|
E|------------------|-----|-----|------|------------------|

     [E]             [B]   [C]     [D]  [C-B- A- G-F- E       
E|----12------------|-----|-----|--10---------------------|
B|------------------|-12--|-13--|-------13-12-10-8--------|
G|------------------|-----|-----|------------------10-9---|
D|------------------|-----|-----|-------------------------|
A|------------------|-----|-----|-------------------------|
E|------------------|-----|-----|-------------------------|

E|------------------------------------------------|
B|------------------------------------------------|
G|----7-9---9~10~9---7----------------------------|
D|-9--------------9----9--7--5--------------------|
A|------------------------------9-----------------|
E|------------------------------------------------|
Добавлено: 14.04.2012
Другие материалы по этой песне:
  • Аккорды и текст

Страница создана 28.03.2012
http://primanota.ru/blue-oyster-cult/lips-in-the-hills-chords.htm
Привет, Гость.
Предлагаем пройти революционный курс по гитаре.
Подарок от PrimaNota.Ru, забирай!