PrimaNota.ru - самый крупный в мире бесплатный архив песенных текстов, аккордов, табулатур и нот


Blue Oyster Cult - In The Presence of Another World - текст песни, таба, видео

Регистрация Запомнить меня
Войти через:  Facebook Google Twitter Vk Yandex Mail.ru

Blue Oyster Cult - In The Presence of Another World - текст песни, таба, видео

Печатать
Просмотров: 91
-------------------------------------------------------------------------------
          In the Presence of Another World - Blue Öyster Cult 
-------------------------------------------------------------------------------
Tabbed by: LoggyK
E-mail: Loggy.king@gmail.com

Tuning: EADGBe

In the Presence of Another World from the 1988 Imaginos Album
(not sure about some of the chord names so I just put the bass note)

Intro 

e|-----------------|-----------------|-----------------|---------0-------|
B|---------0-------|---------0-------|---------0-------|-------0---0-----|
G|-------0---0-----|-------0---0-----|-------0---0-----|-----0-------0---|
D|-----2-------2---|-----2-------2---|-----2-------2---|---2-----------2-|
A|---2-----------2-|---2-----------2-|---2-----------2-|-3---------------|
E|-0---------------|-0---------------|-0---------------|-----------------|
   Em                 Em               Em                C

e|---------0-------|-----------------|-----------------|-----------------|
B|-------0---0-----|---------0-------|---------0-------|-------0-------0-|
G|-----0-------0---|-------0---0-----|-------0---0-----|-----0-------0---|
D|---2-----------2-|-----2-------2---|-----2-------2---|---2-------2-----|
A|-3---------------|---2-----------2-|---2-----------2-|-2-------0-------|
E|-----------------|-0---------------|-0---------------|-----------------|
   C                 Em                Em                B       A

e|-----------------------------------------------------------------------|
B|-----------0-----------------------------------------------------------|
G|-0-------0---0---------------------------------------------------------|
D|---2---2-------2-------------------------------------------------------|
A|-----0-----------0-----------------------------------------------------|
E|-----------------------------------------------------------------------|


=========================================================================
=========================================================================


VERSE
 Em                         C
"In the presence of another world..."

e|-----------------|-----------------|---------0-------|---------0-------|
B|---------0-------|---------0-------|-------0---0-----|-------0---0-----|
G|-------0---0-----|-------0---0-----|-----0-------0---|-----0-------0---|
D|-----2-------2---|-----2-------2---|---2-----------2-|---2-----------2-|
A|---2-----------2-|---2-----------2-|-3---------------|-3---------------|
E|-0---------------|-0---------------|-----------------|-----------------|
   Em                 Em               C                 C

     Em                    B     A
"... You guess, the things ungue-est

e|-----------------|-----------------|-----------------|-----------------|
B|---------0-------|---------0-------|-------0-------0-|-----------0-----|
G|-------0---0-----|-------0---0-----|-----0-------0---|-0-------0---0---|
D|-----2-------2---|-----2-------2---|---2-------2-----|---2---2-------2-|
A|---2-----------2-|---2-----------2-|-2-------0-------|-----0-----------|
E|-0---------------|-0---------------|-----------------|-----------------|
   Em                 Em               B       A          


                   Em                         C
Repeat above for: "In the fullness of another world

                   Em               B  A
                   There is no emptine-ess"

=========================================================================
=========================================================================

PRE-CHORUS
 B                                                     E
"In the promise of another world, A dreadful knowledge comes"

e|-----------------|-----------------|-----------------|-----------------|
B|-----------------|-----------------|-----------------|-----------------|
G|-----------------|-----------------|-----------------|-----------------|
D|-----------------|-----------------|-----------------|-----------------|
A|---2-2---2-2-2---|-2-2-2---2-2-2---|-2-2-2---2---0---|-----------------|
E|-----------------|-----------------|-----------------|-0---------------|
     B               B                 B           A     E

 D                  A             B                 C
"How even space can modulate, And earthly things be done"

e|-----------------|-----------------|-----------------|-----------------|
B|-----------------|-----------------|-----------------|-----------------|
G|-----------------|-----------------|-----------------|-----------------|
D|-----------------|-----------------|-----------------|-----------------|
A|---5-5---5-5-5---|-5---------------|---2-2---2-2-2---|-2-3-------------|
E|-----------------|---5-5---5-5-5---|-5---------------|-----------------|
     D                 A                 B                 C

=========================================================================
=========================================================================

CHORUS

e|-----------------|-----------------|-----------------|-----------------|
B|-----------------|-----------------|-----------------|-----------------|
G|-----------------|---7--7--9---7/9-|-----------------|---7--7--9---7/9-|
D|---7--7--9--9----|---7--7--9---7/9-|---7--7--9--9----|---7--7--9---7/9-|
A|---7--7--9--9----|---5--5--7---5/7-|---7--7--9--9----|---5--5--7---5/9-|
E|---5--5--7--7----|-----------------|---5--5--7--7----|-----------------|
     A  A  B  B        D  D  E   D/E     A  A  B  B        D  D  E   D/E

e|-----------------|-----------------|-----------------|-----------------|
B|-----------------|-----------------|-----------------|-----------------|
G|-----------------|---7--7--9---7/9-|-----------------|-----------------|
D|---7--7--9--9----|---7--7--9---7/9-|---7--7--9--9----|---9--7--5--2----|
A|---7--7--9--9----|---5--5--7---5/7-|---7--7--9--9----|---9--7--5--2----|
E|---5--5--7--7----|-----------------|---5--5--7--7----|---7--5--3--0----|
     A  A  B  B        D  D  E   D/E     A  A  B  B        B  A  G  E 



************************************

| /   slide up
| \   slide down
| h   hammer-on
| p   pull-off
| ~   vibrato
| +   harmonic
| x   Mute note
| b   Bend
| pb  Pre-bend
| br  Bend release
| pbr Pre-bend release
| brb Bend release bend

************************************
Добавлено: 21.11.2015
Другие материалы по этой песне:
  • Аккорды и текст

Страница создана 07.06.2012
http://primanota.ru/blue-oyster-cult/in-the-presence-of-another-world-chords.htm
Привет, Гость.
Предлагаем пройти революционный курс по гитаре.
Подарок от PrimaNota.Ru, забирай!