PrimaNota.ru - самый крупный в мире бесплатный архив песенных текстов, аккордов, табулатур и нот


Blue Oyster Cult - Imaginos - текст песни, таба, видео

Регистрация Запомнить меня
Войти через:  Facebook Google Twitter Vk Yandex Mail.ru

Blue Oyster Cult - Imaginos - текст песни, таба, видео

Печатать
Просмотров: 83
-------------------------------------------------------------------------------
                             Imaginos - Blue Öyster Cult
-------------------------------------------------------------------------------
Tabbed by: LoggyK
E-mail: Loggy.king@gmail.com

Tuning: EADGBe

Imaginos from the 1988 album Imaginos

Intro

e|-----------------------------------------------------------------------------|
B|-----------------------------------------------------------------------------|
G|-----------------------------------------------------------------------------|
D|----------------5-------------------------5----------------------------------|
A|---7-7--7p5h7-----7------------7-7-7p5h7---7---------------------------------|
E|-----------------------------------------------------------------------------|

e|---------------------------------------------------------------------------|
B|---------------------------------------------------------------------------|
G|---------------------------------------------------------------------------|
D|---------------------------------------------------------------------------|
A|---7-7-7p5h7----5-7-7-7p5h7----5-7-7-7p5h7----5----------------------------|
E|------------------------------------------------3-3-3-3-5-5-5-5------------|

************************************

| /   slide up
| \   slide down
| h   hammer-on
| p   pull-off
| ~   vibrato
| +   harmonic
| x   Mute note
| b   Bend
| pb  Pre-bend
| br  Bend release
| pbr Pre-bend release
| brb Bend release bend

************************************
Добавлено: 21.11.2015
Другие материалы по этой песне:
  • Аккорды и текст

Страница создана 06.05.2012
http://primanota.ru/blue-oyster-cult/imaginos-chords.htm
Привет, Гость.
Предлагаем пройти революционный курс по гитаре.
Подарок от PrimaNota.Ru, забирай!