PrimaNota.ru - самый крупный в мире бесплатный архив песенных текстов, аккордов, табулатур и нот


Blue Oyster Cult - Im Burning For You - бас-таба, видео

Регистрация Запомнить меня
Войти через:  Facebook Google Twitter Vk Yandex Mail.ru

Blue Oyster Cult - Im Burning For You - бас-таба, видео

Печатать
Просмотров: 149
Transcribed by Gary Ramsey

 

 

Gtr I (E A D G) - 'Staff'


  Q=134
 4/4
  Gtr I
  W          +H     +H       W          +H     +H
|----------|---------------|----------|---------------|
|----------|---------------|----------|---------------|
|----------|---------------|----------|---------------|
|-1--------|-(1)----(1)----|-1--------|-(1)----(1)----|


  W          +H     +H       H    +H       H    +H
|----------|---------------|-------------|-------------|
|----------|---------------|-------------|-------------|
|----------|---------------|-------------|-0----(0)----|
|-1--------|-(1)----(1)----|-3----(3)----|-------------|


  H    +H       H    +H       H    +H       H    +H
|-------------|-------------|-------------|-------------|
|-------------|-------------|-------------|-------------|
|-------------|-------------|-------------|-------------|
|-1----(1)----|-3----(3)----|-0----(0)----|-3----(3)----|


  H    +H       H    +H       Q  Q  E E Q    Q  Q  E E Q
|-------------|-------------|--------------|-----------0--|
|-------------|-------------|--------------|-2--2--2------|
|-5----(5)----|-------------|-0--0--0---3--|---------2----|
|-------------|-3----(3)----|---------0----|--------------|


  Q  Q  E E Q    Q  Q  Q  Q    Q  Q  E E Q    Q  Q  E E Q
|--------------|-------------|--------------|-----------0--|
|-0--0--0---3--|-3--3--5-----|--------------|-2--2--2------|
|---------0----|-------------|-0--0--0---3--|---------2----|
|--------------|----------3--|---------0----|--------------|


  Q  Q  E E Q    Q  Q  Q  Q    E E Q  E E E E   +E  E E E E E Q
|--------------|-------------|----------------|------------------|
|-0--0--0---3--|-3--3--2--2--|----------------|------------------|
|---------0----|-------------|-0--------------|------------------|
|--------------|-------------|---4-5----3---1-|-(1)-1-1-----3-3--|


  E E Q  E E E E   +E  E E E E E Q    Q  Q  Q  E E   +Q   Q  E E E E
|----------------|------------------|--------------|-----------------|
|----------------|------------------|--------------|-----------------|
|-0--------------|------------------|-3--0-----0-3-|-(3)--0------0---|
|---4-5----3---1-|-(1)-1-1-----3-3--|-------3------|---------3-3---0-|


  Q  Q  Q  E E   +Q   Q  Q  E E   H    H      H    Q  Q
|--------------|----------------|-----------|------------|
|--------------|----------------|-----------|------------|
|----0--3------|------0--3------|-3----2----|-0-------2--|
|-1--------0-1-|-(1)--------3-3-|-----------|------3-----|


  H    +Q   E E   +H     +E  E Q    E E Q  E E E E   +E  E E E E E Q
|---------------|-----------------|----------------|------------------|
|-0----(0)------|-----------------|----------------|------------------|
|---------------|-----------------|-0--------------|------------------|
|-----------0-1-|-(1)----(1)-3-3--|---4-5----3---1-|-(1)-1-1-----3-3--|


  E E Q  E E E E   +E  E E E E E Q    E E Q  E E E E   +E  E E E E E E E
|----------------|------------------|----------------|-------------------|
|----------------|------------------|----------------|-------------------|
|-0--------------|------------------|-0--------------|-------------------|
|---4-5----3---1-|-(1)-1-1-----3-3--|---4-5----3---1-|-(1)-1-1-----3---1-|


  +W           +H     +H       W          W
|------------|---------------|----------|------|
|------------|---------------|----------|------|
|------------|---------------|----------|------|
|-(1)--------|-(1)----(1)----|----------|------|


  H    +H       H    +H       H    +H       H    +H
|-------------|-------------|-------------|-------------|
|-------------|-------------|-------------|-------------|
|-------------|-0----(0)----|-------------|-------------|
|-3----(3)----|-------------|-1----(1)----|-3----(3)----|


  H    +H       H    +H       H    +H       H    +H
|-------------|-------------|-------------|-------------*|
|-------------|-------------|-0----(0)----|-------------*|
|-------------|-------------|-------------|-------------*|
|-0----(0)----|-1----(1)----|-------------|-3----(3)----*|




--------------------------------------------------------------------------------


Duration Legend
---------------
W - whole; H - half; Q - quarter; E - 8th; S - 16th; T - 32nd; X - 64th; a - acciaccatura
+ - note tied to previous; . - note dotted; .. - note double dotted
Uncapitalized letters represent notes that are staccato (1/2 duration)
Irregular groupings are notated above the duration line
Duration letters will always appear directly above the note/fret number it represents the
duration for.  Duration letters with no fret number below them represent rests.  Multi-
bar rests are notated in the form Wxn, where n is the number of bars to rest for.  Low
melody durations appear below the staff

Tablature Legend
----------------
 h   - hammer-on
 p   - pull-off
 b   - bend
 pb  - pre-bend
 r   - bend release (if no number after the r, then release immediately)
 /\  - slide into or out of (from/to "nowhere")
 s   - legato slide
 S   - shift slide
 - natural harmonic
[n]  - artificial harmonic
n(n) - tapped harmonic
 ~   - vibrato
 tr  - trill
 T   - tap
 TP  - trem. picking
 PM  - palm muting
\n/  - tremolo bar dip; n = amount to dip
 \n  - tremolo bar down
 n/  - tremolo bar up
/n\  - tremolo bar inverted dip
 =   - hold bend; also acts as connecting device for hammers/pulls
 <> - volume swell (louder/softer)
 x   - on rhythm slash represents muted slash
 o   - on rhythm slash represents single note slash

Misc Legend
-----------
 |  - bar
||  - double bar
||o - repeat start
o|| - repeat end
*|  - double bar (ending)
 :  - bar (freetime)
 $  - Segno
 &  - Coda
Tempo markers -  = BPM(8/16=s8/s16), where s8 = swing 8ths, s16 = swing 16ths



--------------------------------------------------------------------------------


Добавлено: 27.07.2012
Другие материалы по этой песне:
  • Аккорды и текст

Страница создана 27.07.2012
http://primanota.ru/blue-oyster-cult/im-burning-for-you-chords.htm
Привет, Гость.
Предлагаем пройти революционный курс по гитаре.
Подарок от PrimaNota.Ru, забирай!