PrimaNota.ru - самый крупный в мире бесплатный архив песенных текстов, аккордов, табулатур и нот


Blue Oyster Cult - Eti Extra Terrestrial Intelligence - аккорды и текст, таба, видео

Регистрация Запомнить меня
Войти через:  Facebook Google Twitter Vk Yandex Mail.ru

Blue Oyster Cult - Eti Extra Terrestrial Intelligence - аккорды и текст, таба, видео

Печатать
Просмотров: 175
Авторы: Donald Roeser, Sandy Pearlman

Eti Extra Terrestrial Intelligence
Blue Oyster Cult
Intro: E riff  E riff
               psst, come here...

   E                               E
I hear the music, daylight disc, three men in black said, "Don't report this"
    E                                   E
"Ascension," and that's all they said, sickness now, the hour's dread

 A    D/A         A    Bm/A C#5/A-D/A  A     D                A  Bm/A C#5/A-D/A  E
All praise, he's found the   awful   truth, Balthazar, he's found the   saucer  news


 E                           E                           E
Wait, there's more, I'm in fairy rings and tower beds, "don't report this," three men said
  E                                      E
Books by the blameless and by the dead, king in yellow, queen in red

 A    D/A         A    Bm/A C#5/A-D/A  A     D                A  Bm/A C#5/A-D/A  E
All praise, he's found the   awful   truth, Balthazar, he's found the   saucer  news

Solo: (E* riff  D-A/C#)  x6 

 E                                 E
Dead leaves always give up motion, I no longer feel the motion
        E                                   E
Where prophecy fails, the falling motion, "don't report this, agents of fortune"

 A    D/A         A    Bm/A C#5/A-D/A  A     D                A  Bm/A C#5/A-D/A  E
All praise, he's found the   awful   truth, Balthazar, he's found the   saucer  news

Solo: (E riff  D-A/C#)  (repeat and fade)



Riffs and chords (how I do it):

 E riff  (use for all E's)            E* riff    D A/C#
e-----------------------------------|---------------------------------------
B-----------------------------------|---------------------------------------
G-----------------------------------|---------7-7-5---7-7-7-5---------------
D-2-4--------------0-0--------------|--2-4----7-7-7---7-7-7-7---------------
A-2-4----------2-4-----4-2----------|--2-4--s/5-5-4---5-5-5-4---------------
E-0-0-0-2-0-3h4------------4--------|--0-0----------------------------------


  A  D/A    Bm/A  C#5/A D/A  A
e---------------------------------------------------------------------------
B-2---3-------3--------------5----------------------------------------------
G-2---2-------4-----6----7---6----------------------------------------------
D-2---4-------4-----6----7---7----------------------------------------------
A-0---0-------0-----0----0---0----------------------------------------------
E---------------------------------------------------------------------------
Добавлено: 08.11.2014
Другие материалы по этой песне:

Страница создана 12.03.2012
http://primanota.ru/blue-oyster-cult/eti-extra-terrestrial-intelligence-chords.htm
Привет, Гость.
Предлагаем пройти революционный курс по гитаре.
Подарок от PrimaNota.Ru, забирай!