PrimaNota.ru - самый крупный в мире бесплатный архив песенных текстов, аккордов, табулатур и нот


Blue Oyster Cult - Dr Music - текст песни, таба, видео

Регистрация Запомнить меня
Войти через:  Facebook Google Twitter Vk Yandex Mail.ru

Blue Oyster Cult - Dr Music - текст песни, таба, видео

Печатать
Просмотров: 226
Уроки эстрадного вокала в Санкт-Петербурге
-------------------------------------------------------------------------------
                             SONG NAME - Band Name
-------------------------------------------------------------------------------
Tabbed by:franf4metal
Email:fatcar50s@hotmail.com
  this is how I play this song. Its based on the E major blues scale. Enjoy
Tuning:standard
    main riff (intro, backs up solo, outro etc.)
e|----------------------------------------------------------------|
B|----------------------------------------------------------------|
G|----------------------------------------------------------------|
D|------------------------2h5p2-------------------------------25--|
A|--2-----------------255-------5--0h2----2---------------255-----|
E|--0---3---0----4h5----------------------0---3---0---4h5---------|

    2nd riff (verses)
e|-----------------------------------------------------------------------------------|
B|-----------------------------------------------------------------------------------|
G|-----------------------------------------------------------------------------------|
D|-----------------------------------------------------------------------------------|
A|--2---2------252---2---------------------------------------------------------------|
E|--0---0---3------5-----------------------------------------------------------------|
   dance on fire with me babe....
e|-------------------------------------------------------------------this-------------------|
B|--------------------------------------------------------------------into.next-------------|
G|--2-----2-------------------------------------------------------------part----------------|
D|--2-----2----------------7-7-------9-----------7------------------------------------------|
A|--0--0--------5-5-----0--5-5-------7-7-7-7-7-7-5----------0-2-0------------0--2--3--------|
E|-----------0--3-3-----------------------------------0--3--------------0--3----------------|
  if you really wanna do it...       show me that you're scared...
e|-----------------------------------------------------------------------------------|
B|-----------------------------------------------------------------------------------|
G|--2--2-----------2--2----------2--2-----------4--5--5--4---------------------------|
D|--2--2-----------2--2----------2--2-----------4--5--5--4---------------------------|
A|--0--0-----------0--0----------0--0-----------2--3--3--2---------------------------|
E|---------3---0----------3--0----------3--0-----------------------------------------|
   well you can call me Dr music...

| /  slide up
| \  slide down
| h  hammer-on
| p  pull-off
| ~  vibrato
| +  harmonic
| x  Mute note
===============================================================================
Добавлено: 06.03.2012
Другие материалы по этой песне:
  • Аккорды и текст

Страница создана 06.03.2012
http://primanota.ru/blue-oyster-cult/dr-music-chords.htm
Привет, Гость.
Предлагаем пройти революционный курс по гитаре.
Подарок от PrimaNota.Ru, забирай!