PrimaNota.ru - самый крупный в мире бесплатный архив песенных текстов, аккордов, табулатур и нот


Blue Oyster Cult - Dont Turn Your Back - текст песни, бас-таба, видео

Регистрация Запомнить меня
Войти через:  Facebook Google Twitter Vk Yandex Mail.ru

Blue Oyster Cult - Dont Turn Your Back - текст песни, бас-таба, видео

Печатать
Просмотров: 160
-------------------------------------------------------------------------------
			     DON'T TURN YOUR BACK - Blue Öyster Cult
-------------------------------------------------------------------------------

Tabbed By : poker_weirdo
e-mail: poker_weirdo@hotmail.co.uk

Tuning: EADG


Intro

G|----------|-------|-------|-------|
D|[7]-------|-------|-------|-------|
A|[8]-------|-------|-------|-------|
E|----------|-------|-------|-------|

G||------2--02--0--|----2--02--0--|----2--02--0--|----8--68--6--|----5--35--3---||
D||o-------------2-|------------2-|------------2-|------------8-|------------5-o||
A||o-0-------------|0-------------|0-------------|6-------------|3-------------o||
E||----------------|--------------|--------------|--------------|---------------||


Verse

G||------2--02--0--|----2--02--0--|----2--02--0--|----8--68--6--|----5--35--3---||
D||o-------------2-|------------2-|------------2-|------------8-|------------5-o||
A||o-0-------------|0-------------|0-------------|6-------------|3-------------o|| x3
E||----------------|--------------|--------------|--------------|---------------||


Chorus

G||------3--13--1--|----3--13--1--|----3--13--1--|----3--13--1---||
D||o-------------3-|------------3-|------------3-|------------3-o||
A||o-1-------------|1-------------|1-------------|1-------------o|| 
E||----------------|--------------|--------------|---------------||


Verse

G||------2--02--0--|----2--02--0--|----2--02--0--|----8--68--6--|----5--35--3---||
D||o-------------2-|------------2-|------------2-|------------8-|------------5-o||
A||o-0-------------|0-------------|0-------------|6-------------|3-------------o|| x3
E||----------------|--------------|--------------|--------------|---------------||


Chorus

G||------3--13--1--|----3--13--1--|----3--13--1--|----3--13--1---||
D||o-------------3-|------------3-|------------3-|------------3-o||
A||o-1-------------|1-------------|1-------------|1-------------o|| 
E||----------------|--------------|--------------|---------------||


Verse

G||------2--02--0--|----2--02--0--|----2--02--0--|----8--68--6--|----5--35--3---||
D||o-------------2-|------------2-|------------2-|------------8-|------------5-o||
A||o-0-------------|0-------------|0-------------|6-------------|3-------------o|| x3
E||----------------|--------------|--------------|--------------|---------------||


Chorus

G||------3--13--1--|----3--13--1--|----3--13--1--|----3--13--1---||
D||o-------------3-|------------3-|------------3-|------------3-o||
A||o-1-------------|1-------------|1-------------|1-------------o|| 
E||----------------|--------------|--------------|---------------||


Solo

G||------3--13--1--|----3--13--1--|----3--13--1--|----3--13--1---||
D||o-------------3-|------------3-|------------3-|------------3-o||
A||o-1-------------|1-------------|1-------------|1-------------o|| x12
E||----------------|--------------|--------------|---------------||

3:00
Verse

G||------2--02--0--|----2--02--0--|----2--02--0--|----8--68--6--|----5--35--3---||
D||o-------------2-|------------2-|------------2-|------------8-|------------5-o||
A||o-0-------------|0-------------|0-------------|6-------------|3-------------o|| x3
E||----------------|--------------|--------------|--------------|---------------||


Chorus

G||------3--13--1--|----3--13--1--|----3--13--1--|----3--13--1---||
D||o-------------3-|------------3-|------------3-|------------3-o||
A||o-1-------------|1-------------|1-------------|1-------------o|| 
E||----------------|--------------|--------------|---------------||


Verse

G||------2--02--0--|----2--02--0--|----2--02--0--|----8--68--6--|----5--35--3---||
D||o-------------2-|------------2-|------------2-|------------8-|------------5-o||
A||o-0-------------|0-------------|0-------------|6-------------|3-------------o|| x2
E||----------------|--------------|--------------|--------------|---------------||


Outro

G|-----2--02--0--|----2--02--0--|----2--02--0--|----8--68--6--|----------------|---|
D|-------------2-|------------2-|------------2-|------------8-|[3]-------------|---|
A|-0-------------|0-------------|0-------------|6-------------|[4]-5---5---5---|5--|
E|---------------|--------------|--------------|--------------|----------------|---|

===============================================================================
Добавлено: 27.06.2012
Другие материалы по этой песне:
  • Аккорды и текст

Страница создана 27.06.2012
http://primanota.ru/blue-oyster-cult/dont-turn-your-back-chords.htm
Привет, Гость.
Предлагаем пройти революционный курс по гитаре.
Подарок от PrimaNota.Ru, забирай!