PrimaNota.ru - самый крупный в мире бесплатный архив песенных текстов, аккордов, табулатур и нот


Blue Oyster Cult - Divine Wind - текст песни, бас-таба, видео

Регистрация Запомнить меня
Войти через:  Facebook Google Twitter Vk Yandex Mail.ru

Blue Oyster Cult - Divine Wind - текст песни, бас-таба, видео

Печатать
Просмотров: 170
Tabbed By : A player getting better and better
e-mail: organisedchaos@talktalk.net

Tuning: Standard EADG

Divine Wind by Blue Oyster Cult,  off Cultosaurus Erectus (1980)
bassist Joe Bouchard

great heavy rock song and fairly simple this is the main part
G|--------------------------------------------------------------------------|
D|--------------------------------------------------------------------------|
A|--------------------------------------------------------------------------|
E|-3-2-1-0-------3-2-1-0------3-2-1-0---------------------------------------|

 "if he really thinks we're the devil"
G|--------------------------------------------------------------------------|
D|----------------7-9/12----------------------------------------------------|
A|--------2-45-7------------------------------------------------------------|
E|--2-3-5-----------------------3-2-1-0-------------------------------------|

a slight change at the bridge
G|--------------------------------------------------------------------------|
D|---------------------------------7--9--7----------------------------------|
A|--------2-45-7----2-45-9---7--------------7-------------------------------|
E|-------------------------7------------------------------------------------|

& back to the main part


have fun all you Agents Of Fortune and any comments/rates welcome
Добавлено: 25.05.2012
Другие материалы по этой песне:
  • Аккорды и текст

Страница создана 22.03.2012
http://primanota.ru/blue-oyster-cult/divine-wind-chords.htm
Привет, Гость.
Предлагаем пройти революционный курс по гитаре.
Подарок от PrimaNota.Ru, забирай!