PrimaNota.ru - самый крупный в мире бесплатный архив песенных текстов, аккордов, табулатур и нот


Blue Oyster Cult - 5 Guitars - таба, видео

Регистрация Запомнить меня
Войти через:  Facebook Google Twitter Vk Yandex Mail.ru

Blue Oyster Cult - 5 Guitars - таба, видео

Печатать
Просмотров: 152
Уроки эстрадного вокала в Санкт-Петербурге
-------------------------------------------------------------------------------
                             5 Guitars - Blue Öyster Cult
-------------------------------------------------------------------------------
Tabbed by: LoggyK
E-mail: Loggy.King@gmail.com

Tuning: EADGBe

5 Guitars by Blue Öyster Cult (Actually 4 guitars and 1 bass)
Tab based on this version https://www.youtube.com/watch?v=TFn567IQf74
I will add more as I figure it out.

1:40 - Main bass riff, play the same notes at different octaves for each guitar

G|-----------------------------------------|
D|-----------------------------------------|
A|----5---5---0-3-4-5---5---0-3-4-5---5----|
E|-----------------------------------------| (repeat)

1:51 - Guitar riff 

e|---------------------------------------------------------------------------|
B|---------------------------------------------------------------------------|
G|------------------------10----------------------------10-------------------|
D|---/12~--------13-12-10----12---------/12~---------------13-12-------------|
A|---------------------------------------------------------------------------|
E|---------------------------------------------------------------10----------|


===================================================================================
===================================================================================

2:07 - Second riff (from the song "Golden Age of Leather")

e|---------------------------------------------------------------------------|
B|---------------------------------------------------------------------------|
G|---------------------------------------------------------------------------|
D|---10h12p10---10----------------------------10h12p10---10------------------|
A|------------------10h12p10---10---8h10p8--------------------10h12p10---10~-|
E|---------------------------------------------------------------------------|

On Bass
G|---------------------------------------------------------------------------|
D|---------------------------------------------------------------------------|
A|---3h5p3---3-----------------------3h5p3---3-------------------------------|
E|---------------3h5p3---3---1h3p1---------------3h5p3---3~------------------|

===================================================================================
=================================================================================

************************************

| /   slide up
| \   slide down
| h   hammer-on
| p   pull-off
| ~   vibrato
| +   harmonic
| x   Mute note
| b   Bend
| pb  Pre-bend
| br  Bend release
| pbr Pre-bend release
| brb Bend release bend

************************************
Добавлено: 29.02.2016
Другие материалы по этой песне:
  • Аккорды и текст

Страница создана 29.02.2016
http://primanota.ru/blue-oyster-cult/5-guitars-chords.htm
Привет, Гость.
Предлагаем пройти революционный курс по гитаре.
Подарок от PrimaNota.Ru, забирай!