PrimaNota.ru - самый крупный в мире бесплатный архив песенных текстов, аккордов, табулатур и нот


Blue October - Voice Of A Friend - таба, видео

Регистрация Запомнить меня
Войти через:  Facebook Google Twitter Vk Yandex Mail.ru

Blue October - Voice Of A Friend - таба, видео

Печатать
Просмотров: 174
Уроки эстрадного вокала в Санкт-Петербурге
Blue October
Voice Of A Friend
Approaching Normal

No guitar until the first chorus

Chorus:
E-----------------------------|
B-----------------------------|
G------5-------0-----0------5-|
D-3----5-----2-----2---3----5-|
A-3----3---3-----3-----3----3-|
E-1--------------------1------|

Verse
E---------------------0------------------------------|
B-1-0-0---------0h1p0----0-------1-0-0---------1---1-|
G---------------------------0--------------------0---|
D----------------------------------------------------|
A------------------------------0---------------------|
E-----------0-----------------------------1----------|

E-----------------------0-------------------------------------|
B----1-0----------0h1p0----0-------1-0-0---1p0----------1---1-|
G-----------------------------0----------------2p0--------0---|
D-------------------------------------------------------------|
A-3-----------------------------0-----------------------------|
E------------0--------------------------------------1---------|

Pre-Chorus
E-----------------------------------------------------------------------------|
B-----------------------------------------------------------------------------|
G-5---4---2---2---2---2---5---5---5---5---7---7---7---7---7---7---7---7---7---|
D---3---2---2---2---2---2---3---3---3---3---5---5---5---5---5---5---5---5---5-|
A-----------------------------------------------------------------------------|
E-----------------------------------------------------------------------------|

E------------------------------------------------------------------------------|
B------------------------------------------------------------------------------|
G-9---9---9---9---10---10---10---10---12---12---12---12---12---12---12---12----|
D---7---7---7---7----10---10---10---10---12---12---12---12---12---12---12---12-|
A------------------------------------------------------------------------------|
E------------------------------------------------------------------------------|

E---------------------------------------------------------------------|
B---------------------------------------------------------------------|
G-2---2---2---2---5---5---5---5---7---7---7---7---7---7---7---7---7---|
D---2---2---2---2---3---3---3---3---5---5---5---5---5---5---5---5---5-|
A---------------------------------------------------------------------|
E---------------------------------------------------------------------|

E------------------------------------------------------------|
B------------------------------------------------------------|
G-9---9---9---9---10---10---10---10---12---12---12---12---12-|
D---7---7---7---7----10---10---10---10---12---12---12---12---|
A------------------------------------------------------------|
E------------------------------------------------------------|

Chorus
E-----------------------------|
B-----------------------------|
G------5---5-5/7-7/5/5------5-|
D-3----5---x-x/x-x/x-x-3----5-|
A-3----3---3-3/5-5/3-3-3----3-|
E-1--------------------1------|

Break
E-------------------------------------------------------------|
B-1/13---13/12--12/10--10/6-6/8-1---1/13--12--12/10--10/6-6/8-|
G-------------------------------------------------------------|
D-------------------------------------------------------------|
A-------------------------------------------------------------|
E-------------------------------------------------------------|

Chorus
E-----------------------------------------------------------------------------|
B-----------------------------------------------------------------------------|
g------5---5-5/7-7/5-5------5---5-5/7-7/9-9/10------5---5-5/7-7/9-9/10------5-|
D-3----5---x-x/x-x/x-x-3----5---x-x/x-x/x-x/-x-3----5---x-x/x-x/x-x/-x-3----5-|
A-3----3---3-3/5-5/3-3-3----3---3-3/5-5/7-7/-8-3----3---3-3/5-5/7-7/-8-3----3-|
E-1--------------------1-----------------------1-----------------------1------|

Questions?
Email at cory.roesch@yahoo.com
Добавлено: 11.08.2015
Другие материалы по этой песне:
  • Аккорды и текст

Страница создана 11.08.2015
http://primanota.ru/blue-october/voice-of-a-friend-chords.htm
Привет, Гость.
Предлагаем пройти революционный курс по гитаре.
Подарок от PrimaNota.Ru, забирай!