PrimaNota.ru - самый крупный в мире бесплатный архив песенных текстов, аккордов, табулатур и нот


Blue Nile - Sentimental Man - аккорды и текст, видео

Регистрация Запомнить меня
Войти через:  Facebook Google Twitter Vk Yandex Mail.ru

Blue Nile - Sentimental Man - аккорды и текст, видео

Печатать
Просмотров: 215
Sentimental Man
Blue Nile
The Blue Nile - Sentimental man - Transcribed 23/05/98 by Mike Garoghan
Please email corrections to>>>>>>>>>>>>> Mike@psiron.demon.co.uk


Chords

GaddD   -320033
Em7     -07978(10)
C       -8(10)(10)988
C/A     -x05558
Dm7     -x57568
Am7addC -575558
Am7     -x02213
Dm      -x00231



@ Sentimental man

          GaddD                   GaddD
e:--------3-----------------------3-----------------|
B:--------3-----------------------3-----------------|
G:--------0---------!12!----------0-----------------|
D:--------------------------------------------------|
A:--------------------------------------------------|
E:-2-3---------2-0---------2-3----------------------|


e:--------------------------------------------------|
B:--------------------------------------------------|
G:-------------------------------------!12!---------|
D:--------------------------------------------------|
A:--------------------------------------------------|
E:------------------------------2-0-----------------|
 What difference does it make         Baby

               GaddD                             Em7
e:-------------3---------------------------------10-|
B:-------------3---------------------------------8--|
G:-------------0---------------------------------7--|
D:-----------------------------------------------9--|
A:-----------------------------------------------7--|
E:-------2-3--------------------------------2-0-----|
                  We all make some mistakes    Baby


C
  Hold my hand I
C/A
   I think ..........
Dm7       Am7addC     Dm7         Am7addC
     Sentimental man (Sentimental man), yeah
Dm7       Am7addC     Dm7         Am7addC
     Sentimental man (Sentimental man)
Am7
  It's not ..........
Dm
  It's not about ....
Am7                  Dm
   It's not about ...........
Am7          Dm
   Only love, .............,
Am7       Dm                               Dm7
Yeah,     yeah, yeah, yeah, yeah, yeah, yeah,

******************************************
******************************************
TINSELTOWN - The Unofficial Blue Nile Site
http://www.psiron.demon.co.uk/
******************************************
******************************************
A COMPLETE VERSION WITH ALL THE LYRICS CAN
BE FOUND AT THE ABOVE WEBSITE


     
Добавлено: 29.11.2013
Другие материалы по этой песне:
  • Аккорды и текст

Страница создана 20.07.2012
http://primanota.ru/blue-nile/sentimental-man-chords.htm
Привет, Гость.
Предлагаем пройти революционный курс по гитаре.
Подарок от PrimaNota.Ru, забирай!