PrimaNota.ru - самый крупный в мире бесплатный архив песенных текстов, аккордов, табулатур и нот


Blue Nile - Let's Go Out Tonight - текст песни, таба, видео

Регистрация Запомнить меня
Войти через:  Facebook Google Twitter Vk Yandex Mail.ru

Blue Nile - Let's Go Out Tonight - текст песни, таба, видео

Печатать
Просмотров: 226
Уроки эстрадного вокала в Санкт-Петербурге
Авторы музыки: Paul Buchanan
Авторы текста: Paul Buchanan
The Blue Nile - Let's go out tonight - Transcribed 6/3/98 by Mike Garoghan
Amended 25/10/98 with the welcome guidence and suggestions
of Lee@Prynn.freeserve.co.uk
Any comments or corrections please email>>>>>>>>>>>>>>>>
>>>>>>>mike@psiron.demon.co.uk

Chords

Asus2#4    - x02440
C#m9       - x53550
G#m7#      - 4x4444
C#m7       - x46454
C#m7(2)    - x46457
B          - 224442
Em7(no 3rd)- 022440
F#m7       - 242252
B7sus4     - x24252
E          - 022100
Amaij7     - x02120


@SONG: Let's go out tonight

Picking Guitar Part

     Asus2#4        Asus2#4        C#m9            C#m9
e----------0--------------0--------------0---------------0----------e
B-----------4--------------4--------------4---------------4---------B
G--------4------4-------4------4-------4-------4-------4-------4----G
D------2--------------2--------------2---------------2--------------D
A----0--------------0--------------4---------------4----------------A
E-------------------------------------------------------------------E

     Asus2#4        Asus2#4         G#m7         C#m7
e----------0--------------0----------------4------------4-----------e
B-----------4--------------4--------------4------------5------------B
G--------4------4-------4------4--------4------------4--------------G
D------2--------------2---------------4------------6----------------D
A----0--------------0----------------------------4----------4-2-----A
E-----------------------------------4-------------------------------E

     Asus2#4        B           C#m7         C#m7(2)
e----------0---------------2-----------4------------7---------------e
B-----------4-------------4-----------5------------5----------------B
G--------4--------------4-----------4------------4------------------G
D------2--------------4-----------6------------6--------------------D
A----0--------------2-----------4------------4----------------------A
E-------------------------------------------------------------------E

     Asus2#4        B            Asus2#4
e----------0---------------2-----------0----------------------------e
B-----------4-------------4-------------4---------------------------B
G--------4--------------4------------4------4-----------------------G
D------2--------------4------------2--------------------------------D
A----0--------------2------------0----------------------------------A
E-------------------------------------------------------------------E



******************************************
******************************************
TINSELTOWN - The Unofficial Blue Nile Site
http://www.psiron.demon.co.uk/
******************************************
******************************************
A COMPLETE VERSION WITH ALL THE LYRICS CAN
BE FOUND AT THE ABOVE WEBSITE


     
Добавлено: 21.08.2013
Другие материалы по этой песне:

Страница создана 14.06.2012
http://primanota.ru/blue-nile/lets-go-out-tonight-chords.htm
Привет, Гость.
Предлагаем пройти революционный курс по гитаре.
Подарок от PrimaNota.Ru, забирай!