PrimaNota.ru - самый крупный в мире бесплатный архив песенных текстов, аккордов, табулатур и нот


Blue Nile - Happiness - аккорды и текст, видео

Регистрация Запомнить меня
Войти через:  Facebook Google Twitter Vk Yandex Mail.ru

Blue Nile - Happiness - аккорды и текст, видео

Печатать
Просмотров: 123
Happiness
Blue Nile
The Blue Nile - Happiness
Transcribed 10/3/98 by Mike Garoghan
Amended 12/07/99
Any comments or corrections please email>
>mike@psiron.demon.co.uk

Chords

G         -3xxx33
G/Ebass   -0xxx53
Csus/Abass-x0x533
C         -x35553
D         -x57775
D7        -x57575
Bm7       -7x7777
Em7       -x79987
Cadd9      x32030
C/B       -x20010
Am7       -5x5555
Am9       -x0[10]987
C/Gbass   -335553


h = Hammer on
p = Pull off
b = Bend string up
r = Release bend
/ = Slide up
\ = Slide down
v = Vibrato

@SONG: Happiness

Intro

 G       G/Ebass G       G/Ebass   X2
-----3------3--------3------3----
-----3---3/5---------3---3/5-----
---------------------------------
---------------------------------
---------------------------------
-3-3---3-0-------3-3---3-0-------

  Csus/Abass       Csus/Abass
-----------3------------------3--
----3------3----------3-------3--
----5--4-5------------5---4-5----
---------------------------------
-0-0--0-----------0-0---0--------
---------------------------------

G G/Ebass                    G G/Ebass
Now that I found peace..........
Csus/Abass                   Csus/Abass
Tell me, Jesus, .............
G G/Ebass                    G G/Ebass
Now that I found peace .........
Csus/Abass                   Csus/Abass
Tell me, Jesus, will .........

C                       D
The birds are .....................
Bm7       Em7
It's only .............
D         Cadd9    C
It's only ....
D         Cadd9    C
It's only ....
D         Cadd9    C C/B
It's only ....

I Swear
Am7     D7        Am9
I wanna hold you, ..................
Am7     D7        Am9
The cigarettes, ....................
Am7     D7         Am9
I can   do wrong, .................
Am7     D7        Am9
I see you ......
                    G G/EBass
It'll be ..............

Now that I found peace of mind
..............................
..............................
..............................

Birds are laughing...........



---------------3------3----------------3------3----
---------------3---3/5-----------------3---3/5-----
---------------------------------------------------
---------------------------------------------------
---------------------------------------------------
-----------3-3---3-0---------------3-3---3-0-------
 Happiness               Happiness

---------------3------3----------------3------3----
---------------3---3/5-----------------3---3/5-----
---------------------------------------------------
---------------------------------------------------
-----------3-3---3-0---------------3-3---3-0-------
---------------------------------------------------
 Happiness               Happiness


******************************************
******************************************
TINSELTOWN - The Unofficial Blue Nile Site
http://www.psiron.demon.co.uk/
******************************************
******************************************
A COMPLETE VERSION WITH ALL THE LYRICS CAN
BE FOUND AT THE ABOVE WEBSITE


     
Добавлено: 14.10.2013
Другие материалы по этой песне:
  • Аккорды и текст

Страница создана 22.04.2012
http://primanota.ru/blue-nile/happiness-chords.htm
Привет, Гость.
Предлагаем пройти революционный курс по гитаре.
Подарок от PrimaNota.Ru, забирай!