PrimaNota.ru - самый крупный в мире бесплатный архив песенных текстов, аккордов, табулатур и нот


Blue Man Group - Tv Song - бас-таба, видео

Регистрация Запомнить меня
Войти через:  Facebook Google Twitter Vk Yandex Mail.ru

Blue Man Group - Tv Song - бас-таба, видео

Печатать
Просмотров: 79
Blue Man Group
TV Song

Tabbed by Ben (mangra_jalkin@yahoo.com)


G|--5--8/9--7--5--8--5--5--0--5--3-10--
D|-------------------------------------
A|-------------------------------------
E|-------------------------------------


-5--9-12--9--5--8--5--5--1--0-------------
-------------------------------3----------
----------------------------------5--0--3-
------------------------------------------


----------------------------------------------------------------------------
     
Добавлено: 19.09.2013
Другие материалы по этой песне:
  • Аккорды и текст

Страница создана 19.09.2013
http://primanota.ru/blue-man-group/tv-song-chords.htm
Привет, Гость.
Предлагаем пройти революционный курс по гитаре.
Подарок от PrimaNota.Ru, забирай!