PrimaNota.ru - самый крупный в мире бесплатный архив песенных текстов, аккордов, табулатур и нот


Blue Man Group - Shadows - бас-таба, видео

Регистрация Запомнить меня
Войти через:  Facebook Google Twitter Vk Yandex Mail.ru

Blue Man Group - Shadows - бас-таба, видео

Печатать
Просмотров: 207
Уроки эстрадного вокала в Санкт-Петербурге
Авторы: Blue Man Group

G:-----------------|
D:-----------------|
A:-5~--------------|
E:-----6~---3~-----|
intro

G:------|-----------------|
D:------|-----------------|
A:--5~--|-5~--------------|
E:------|-----6~---3~-----|
repeat 5 times

		    G:------|
The Final cord:     D:------|
		    A:--5~--|
		    E:------|


~ :hold note
Добавлено: 18.07.2012
Другие материалы по этой песне:
  • Аккорды и текст

Страница создана 18.07.2012
http://primanota.ru/blue-man-group/shadows-chords.htm
Привет, Гость.
Предлагаем пройти революционный курс по гитаре.
Подарок от PrimaNota.Ru, забирай!