PrimaNota.ru - самый крупный в мире бесплатный архив песенных текстов, аккордов, табулатур и нот


Blue Man Group - Opening Mandelbrot - таба, видео

Регистрация Запомнить меня
Войти через:  Facebook Google Twitter Vk Yandex Mail.ru

Blue Man Group - Opening Mandelbrot - таба, видео

Печатать
Просмотров: 118
Here are the Tabs for Opening Mandelbrot.
The Guitar needs many Distortion

This is the Main part:

E|---------------|------------------|---------------|----------------| Repeat
B|---------------|------------------|---------------|----------------|
G|---------------|------------------|---------------|----------------|
D|----4----------|--------2---------|-------4-------|--------2-------|
A|----4----------|--------2---------|-------4-------|--------2-------|
E|----2----------|--------0---------|-------2-------|--------0-------|




This is the Melody


E|---------------|------------------|---------------|--------5---7---| Repeat
B|---------------|------------------|---------------|-5--------------|
G|----6----------|-4----------------|----6-------4--|----------------|
D|-4-------------|----6-------6b7b6-|-4-------------|----------------|
A|---------------|------------------|---------------|----------------|
E|---------------|------------------|---------------|----------------|

b = bend

Listen for the Timing 
Добавлено: 24.02.2012
Другие материалы по этой песне:
  • Аккорды и текст

Страница создана 24.02.2012
http://primanota.ru/blue-man-group/opening-mandelbrot-chords.htm
Привет, Гость.
Предлагаем пройти революционный курс по гитаре.
Подарок от PrimaNota.Ru, забирай!