PrimaNota.ru - самый крупный в мире бесплатный архив песенных текстов, аккордов, табулатур и нот


Blue Man Group - Drumbone - таба, бас-таба, видео

Регистрация Запомнить меня
Войти через:  Facebook Google Twitter Vk Yandex Mail.ru

Blue Man Group - Drumbone - таба, бас-таба, видео

Печатать
Просмотров: 303
Авторы: Blue Man Group

---------------------------------------------------------------------------
                       Blue Man Group – Drumbone
---------------------------------------------------------------------------
    Album: Audio

Tabbed by: Blackbird0589
    
    Email: blackbird0589@yahoo.de

THAT'S MY FIRST TAB. So I HOPE IT'S ALL WRIGHT BUT SOUNDS NICE.
ENJOY IT!!!
Greetings to everybody I know and thanks for inventing the guitar!!!

 [1:43]
E |----------------------------------------------------------|
H |----------------------------------------------------------|
G |----------------------------------------------------------|
D |-66-4444-66-4444-66-4444-22-4444--------------------------|  2x
A |-66-4444-66-4444-66-4444-22-4444--------------------------|
E |-44-2222-44-2222-44-2222-00-2222--------------------------|

 [1:57]
E |----------------------------------------------------------|
H |----------------------------------------------------------|
G |----------------------------------------------------------|
D |--666-666-66----------------------------------------------|
A |--666-666-66----------------------------------------------|
E |--444-444-44----------------------------------------------|
 
 [1:59]
E |----------------------------------------------------------|
H |----------------------------------------------------------|
G |----------------------------------------------------------|
D |-66-4444-66-4444-66-4444-22-4444--------------------------|  2x
A |-66-4444-66-4444-66-4444-22-4444--------------------------|
E |-44-2222-44-2222-44-2222-00-2222--------------------------|

 [2:12]
E |----------------------------------------------------------|
H |----------------------------------------------------------|
G |----------------------------------------------------------|
D |-6-4-2-4-6------------------------------------------------|  4x
A |-6-4-2-4-6------------------------------------------------|
E |-4-2-0-2-4------------------------------------------------|
 

 [2:17]
E |---0-----0-------0------0--------0-----0------------------|
H |----0-----0-------0------0--------0-----0-----------------|
G |-1-----3---3---1-----3-----1--1------3---3----------------|
D |-2-----4-------2-----4--------2------4--------------------|
A |-2-----4-------2-----4--------2------4--------------------|
E |-0-----2-------0-----2--------0------2--------------------|

 [2:38]
E |----------------------------------------------------------|
H |----------------------------------------------------------|
G |----------------------------------------------------------|
D |-666-666--6--666-6-66-------------------------------------|
A |-666-666--6--666-6-66-------------------------------------|
E |-444-444--4--444-4-44-------------------------------------|
Добавлено: 09.03.2012
Другие материалы по этой песне:
  • Аккорды и текст

Страница создана 09.03.2012
http://primanota.ru/blue-man-group/drumbone-chords.htm
Привет, Гость.
Предлагаем пройти революционный курс по гитаре.
Подарок от PrimaNota.Ru, забирай!