PrimaNota.ru - самый крупный в мире бесплатный архив песенных текстов, аккордов, табулатур и нот


Blue King Brown - Water - таба, видео

Регистрация Запомнить меня
Войти через:  Facebook Google Twitter Vk Yandex Mail.ru

Blue King Brown - Water - таба, видео

Печатать
Просмотров: 104
Blue King Brown - Water
http://youtu.be/H11hii4za7g

tabbed by jojo4400@web.de


Bm: X24432

Em: X79987


Intro:

e|-------2--------------------------------------2-------------------|
B|----3-----3p5--3p5--3---------3------------3-----3p5--3p5--3------|
G|-4-----------------------4-4------------4----------------------4--|
D|---------------------------------4-4------------------------------|
A|------------------------------------------------------------------|
E|------------------------------------------------------------------|


Bass (Intro):

G|------------------------------------------------------------------|
D|----0--4--0h2--0h2--0---------0------------0--4--0h2--0h2--0------|
A|-2-----------------------2-2------------2----------------------2--|
E|---------------------------------2-2------------------------------|



Bm and Em throughout the whole song!!!!!



Bridge:

e|------------------------------------------------------------------|
B|------------------------------------------------------------------|
G|------------------------------------------------------------------|
D|-4-0---0h2--0--------0---------------0----4-0---0h2-------0-------|
A|----------------2-2---------------2------------------2-2-----2----|
E|------------------------2------2----------------------------------|




I don't know where to stand, up on the mountain or down in the sand,
Cause I like being way up high, said I like being up but I don't know why,
But up here I can see the walls built by man to divide us all,
They've been making war and deny us peace
They took away the land and then they brought disease

Those white men who've got the key to black mans identity
And those lands they were s'possed to be forever.
They got no heart, they got no right
And if you decide to fight, please know that we can fight together!

We'll be the water, water, water
We'll be the water for their fire (water for their fire)
We'll be the water, water, water
We'll be the water for their fire (water for their fire)

They have the tendency to put in their pockets everything they see,
They‘ve been taking lands all across the globe
And writing down their name on every rock and stone.
But it aint no mystery, they're keeping the children from their ancestry
They lock them out of their sacred ground
Well, one day I'm gonna see them pull those fences down

Those white men who've got the key to black mans identity
And those lands, they were s'possed to be forever!
They got no heart, they got no right
And if you decide to fight, please know that we can fight together!

We'll be the water, water, water
We'll be the water for their fire (water for their fire)
We'll be the water, water, water
We'll be the water for their fire (water for their fire)

Now, our history is a shame to me but I still got faith in humanity,
Can we swap back all the wrongs for rights
And let the people walk free every day and night, cause
Each nation has their own piece of earth that they call their home,
It's a point of reference to identify
So if you don't know where you come from, you know why. (It's those)

Those white men who've got the key to black mans identity
And those lands, they were s'possed to be forever!
They got no heart, they got no right
And if you decide to fight, please know that we can fight together!

We'll be the water, water, water
We'll be the water for their fire (water for their fire)
We'll be the water, water, water
We'll be the water for their fire (water for their fire)
Добавлено: 15.06.2012
Другие материалы по этой песне:
  • Аккорды и текст

Страница создана 15.06.2012
http://primanota.ru/blue-king-brown/water-chords.htm
Привет, Гость.
Предлагаем пройти революционный курс по гитаре.
Подарок от PrimaNota.Ru, забирай!