PrimaNota.ru - самый крупный в мире бесплатный архив песенных текстов, аккордов, табулатур и нот


Blue Felix - Hate Inside - таба, видео

Регистрация Запомнить меня
Войти через:  Facebook Google Twitter Vk Yandex Mail.ru

Blue Felix - Hate Inside - таба, видео

Печатать
Просмотров: 98
Уроки эстрадного вокала в Санкт-Петербурге
Song:      Hate Inside
Band:      Blue Felix
Album:     -
Tuning:    Drop C ( C-G-C-F-A-D )
Tabbed by: JohnBour

- = Palm mute
/ = Slide up
\ = Slide down
b = Bend
h = Hammer on
p = Pull off
* = Pinch Harmonic

[Intro]
|------------------------------------------------------------------|
|------------------------------------------------------------------|
|------------------------------------------------------------------|
|------------------------------------------------------------5-7-8-|
|------------------------------------------------------------3-5-6-|
|0-0-0-0-00000000-0-0-0-0-00000000-0-0-0-0-00000000-0-0-0000-------|
 - - - - -------- - - - - -------- - - - - -------- - - ----



[Verse 1 ]
|----------------------------------------------------------------|
|----------------------------------------------------------------|
|----------------------------------------------------------------| x3
|7---------------------------------------------------------5-7-8-|
|5-0-0-0-0-0000001-0-0-0-0-0000003-0-0-0-0-0000001-0-0-00-03-5-6-|
|--0-0-0-0-0000001-0-0-0-0-0000003-0-0-0-0-0000001-0-0-00-0------|
   - - - - ------- - - - - ------- - - - - ------- - - -- -

|--------------------------------------------------------------|
|--------------------------------------------------------------|
|--------------------------------------------------------------| x2
|7-------------------------------------------------------5-7-8-|
|5-0-0-0---00001-0---0-0---00003-0---0-0---00001-0---00-03-5-6-|
|--0-0-0---00001-0---0-0---00003-0---0-0---00001-0---00-0------|
   - - -   ----- -   - -   ----- -   - -   ----- -   -- -



[Chorus 1 ]

Guitar A
|----------------------------------------------------------------|
|----------------------------------------------------------------|
|7-7-7-7-7-7-7-7-5-5-5-5-5-5-5-5---------------------------------| x2
|7-7-7-7-7-7-7-7-5-5-5-5-5-5-5-5-3-3-3-3-3-3-3-3-5-5-5-5-5-6-6-5-|
|5-5-5-5-5-5-5-5-3-3-3-3-3-3-3-3-3-3-3-3-3-3-3-3-5-5-5-5-5-6-6-5-|
|--------------------------------3-3-3-3-3-3-3-3-5-5-5-5-5-6-6-5-|


Guitar B
|----------------------------------------------------------------|
|----------------------------------------------------------------|
|7-7-7-7-7-7-7-7-9-9-9-9-9-9-9-9-5-5-5-5-5-5-5-5-9-9-9-9-9-10109-|
|----------------------------------------------------------------|
|5-5-5-5-5-5-5-5-7-7-7-7-7-7-7-7-3-3-3-3-3-3-3-3-7-7-7-7-7-8-8-7-|
|----------------------------------------------------------------|
                                                          /   \

|----------------------------------------------------------------|
|----------------------------------------------------------------|
|7-7-7-7-7-7-7-7-9-9-9-9-9-9-9-9-10101010101010109-7-7-7-7-8-8-8-|
|----------------------------------------------------------------|
|5-5-5-5-5-5-5-5-7-7-7-7-7-7-7-7-8-8-8-8-8-8-8-8-7-5-5-5-5-6-6-5-|
|----------------------------------------------------------------|
                                                         /   \


[Interlude 1 ]
|-----------------------------------------------|
|-----------------------------------------------|
|-----------------------------------------------| x2
|-----------------------------------------------|
|3-0-000--000-000--0-1-0-3-0-000--000-0-3-0-6-5-|
|3-0-000--000-000--0-1-0-3-0-000--000-0-3-0-6-5-|
     ---  --- ---  - - -     ---  --- - - -

|------------------------------------------------------------------|
|------------------------------------------------------------------|
|------------------------------------------------------------------|
|------------------------------------------------------------5-7-8-|
|------------------------------------------------------------3-5-6-|
|0-0-0-0-00000000-0-0-0-0-00000000-0-0-0-0-00000000-0-0-0000-------|
 - - - - -------- - - - - -------- - - - - -------- - - ----



[Verse 2 ]
|----------------------------------------------------------------|
|----------------------------------------------------------------|
|----------------------------------------------------------------| x2
|7---------------------------------------------------------5-7-8-|
|5-0-0-0-0-0000001-0-0-0-0-0000003-0-0-0-0-0000001-0-0-00-03-5-6-|
|--0-0-0-0-0000001-0-0-0-0-0000003-0-0-0-0-0000001-0-0-00-0------|
   - - - - ------- - - - - ------- - - - - ------- - - -- -

|--------------------------------------------------------------|
|--------------------------------------------------------------|
|--------------------------------------------------------------| x2
|7-------------------------------------------------------5-7-8-|
|5-0-0-0---00001-0---0-0---00003-0---0-0---00001-0---00-03-5-6-|
|--0-0-0---00001-0---0-0---00003-0---0-0---00001-0---00-0------|
   - - -   ----- -   - -   ----- -   - -   ----- -   -- -



[Bridge]
|------------|
|------------|
|------------|
|------------|
|5-7-8-5-7-8-|
|3-5-6-3-5-6-|



[Chorus 2 ] x2

Guitar A
|----------------------------------------------------------------|
|----------------------------------------------------------------|
|7-7-7-7-7-7-7-7-5-5-5-5-5-5-5-5---------------------------------| x2
|7-7-7-7-7-7-7-7-5-5-5-5-5-5-5-5-3-3-3-3-3-3-3-3-5-5-5-5-5-6-6-5-|
|5-5-5-5-5-5-5-5-3-3-3-3-3-3-3-3-3-3-3-3-3-3-3-3-5-5-5-5-5-6-6-5-|
|--------------------------------3-3-3-3-3-3-3-3-5-5-5-5-5-6-6-5-|

Guitar B
|----------------------------------------------------------------|
|----------------------------------------------------------------|
|7-7-7-7-7-7-7-7-9-9-9-9-9-9-9-9-5-5-5-5-5-5-5-5-9-9-9-9-9-10109-|
|----------------------------------------------------------------|
|5-5-5-5-5-5-5-5-7-7-7-7-7-7-7-7-3-3-3-3-3-3-3-3-7-7-7-7-7-8-8-7-| 
|----------------------------------------------------------------|  
                                                          /   \      
                                                                    
|----------------------------------------------------------------|  
|----------------------------------------------------------------| 
|7-7-7-7-7-7-7-7-9-9-9-9-9-9-9-9-10101010101010109-7-7-7-7-8-8-8-|
|----------------------------------------------------------------|
|5-5-5-5-5-5-5-5-7-7-7-7-7-7-7-7-8-8-8-8-8-8-8-8-7-5-5-5-5-6-6-5-|
|----------------------------------------------------------------|
                                                          /   \


[Interlude 2 ]
|---------------------------------------------------------|
|---------------------------------------------------------|
|---------------------------------------------------------|
|0---------6---5------------0-----------6---5----------1--|
|0---------6---5------------0-----------6---5----------1--|
|0---------6---5------------0-----------6---5----------1--|

|------------------------------------------------------------|
|------------------------------------------------------------|
|------------------------------------------------------------|
|0---------6---5------1-1-1-0-----------6---5----------1-1-1-|
|0---------6---5------1-1-1-0-----------6---5----------1-1-1-|
|0---------6---5------1-1-1-0-----------6---5----------1-1-1-|
                                                        - - -
|-----------------------------------------------|
|-----------------------------------------------|
|-----------------------------------------------| x2
|-----------------------------------------------|
|3-0-000--000-000--0-1-0-3-0-000--000-0-3-0-6-5-|
|3-0-000--000-000--0-1-0-3-0-000--000-0-3-0-6-5-|
     ---  --- ---  - - -     ---  --- - - -



[Outro]
|-------------------------------------------------------|
|-------------------------------------------------------|
|-------------------------------------------------------|
|-------------------------------------------------------|
|3-0--------------3-1-0-1-0---------6-5-3-5-1-0---------|
|3-0--------------3-1-0-1-0---------6-5-3-5-1-0---------| 
                  - - -             - - - -
|-------------------------|
|-------------------------|
|-------------------------|
|-------------------------|
|0101-0-----------6-5-3-5-|
|0101-0-----------6-5-3-5-|
  --              - - - -
Добавлено: 30.03.2016
Вам также может быть интересно:
Другие материалы по этой песне:
  • Аккорды и текст

Страница создана 30.03.2016
http://primanota.ru/blue-felix/hate-inside-chords.htm
Привет, Гость.
Предлагаем пройти революционный курс по гитаре.
Подарок от PrimaNota.Ru, забирай!