PrimaNota.ru - самый крупный в мире бесплатный архив песенных текстов, аккордов, табулатур и нот


The Blue Dawns - He Goes - таба, видео

Регистрация Запомнить меня
Войти через:  Facebook Google Twitter Vk Yandex Mail.ru

The Blue Dawns - He Goes - таба, видео

Печатать
Просмотров: 155
Уроки эстрадного вокала в Санкт-Петербурге
-------------------------------------------------------------------------------
                             HE GOES - The Blue Dawns
-------------------------------------------------------------------------------
Tabbed by: Pouj
E-mail: pierre.poughon@gmail.com

Tuning: standard

great song from a little band. I think I found out the guitar parts
Hope you'll understand 
Hello from France
I twot ethe band, they told me that the tab was pretty accurate. https://twitter.com/thebluedawns/status/606861588079996928

                   -------INTRO----------
Riff 1 
e|---------------------------------------------------------------------------|
B|---------------------------------------------------------------------------|
G|---------------------------------------------------------------------------|
D|-----------4-2-------2222----2---------2-----------------------------------|
A|------2-444-----4--4------44---4---2-4-------------------------------------|
E|--2-2----------------------------------------------------------------------|

Riff 2 
e|---------------------------------------------------------------------------|
B|---------------------------------------------------------------------------|
G|---------------------------------------------------------------------------|
D|------------4-2-------2222----2------2-4-2---------------------------------|
A|-------2-444-----4--4------44---4-2-4--------------------------------------|
E|--2-2----------------------------------------------------------------------|

Riff 3 
e|---------------------------------------------------------------------------|
B|---------------------------------------------------------------------------|
G|---------------------2222----2-------2-4-2---------------------------------|
D|-----------4-2------------44---4-2-4---------------------------------------|
A|------2-444-----4--4-------------------------------------------------------|
E|--2-2----------------------------------------------------------------------|

Riff 4 
e|---------------------------------------------------------------------------|
B|---------------------------------------------------------------------------|
G|---------------------------------------------------------------------------|
D|-----------4-2------2222---------------------------------------------------|
A|------2-444-----4-4-----4-44442-22224-42-----------------------------------|
E|--2-2-----------------------------------5----------------------------------|


Then again riffs 1, 2,3 and 4

                 ---------VERSE------
    v v     ^ ^     v v    ^ ^          v : downstrokes, ^ : upstrokes
e|---------------------------------------------------------------------------|
B|---------------------------------------------------------------------------|
G|---------------------------------------------------------------------------|
D|--4-4----11-11----7-7----9-9-----------------------------------------------|
A|--4-4----11-11----7-7----9-9---------x2------------------------------------|
E|--2-2----9--9-----5-5----7-7-----------------------------------------------|
    v v v  ^ ^    v v v  ^ ^      v v v  ^ ^    v v v v v v v v 
e|---------------------------------------------------------------------------|
B|---------------------------------------------------------------------------|
G|---------------------------------------------------------------------------|
D|--4-4-4--11-11--7-7-7--9-9--x---4-4-4--11-11--7-7-7-7/9-9-9-9--------------|
A|--4-4-4--11-11--7-7-7--9-9--x---4-4-4--11-11--7-7-7-7/9-9-9-9--------------|
E|--2-2-2--9--9---5-5-5--7-7--x---2-2-2--9--9---5-5-5-5/7-7-7-7--------------|

               ----------CHORUS : same as intro

Solo Part
e|---------------------------------------------------------------------------|
B|---------------------------------------------------------------------------|
G|---------------------------------------------------------------------------|
D|---------------------------------------------------------------------------|
A|---------------------------------------------------------------------------|
E|---2~-2-2/3-5-3-2~--2/3-5-3/14~-14/15-17-15-14~-14-14/15-17-15-------------|

Last 3rd Chorus Riff

e|------------------------------------------------------------------------------------|
B|------------------------------------------------------------------------------------|
G|------------------------------------------------------------------------------------|
D|-----------4-2------2222------2-2222------2-2222------------------------------------|
A|------2-444-----4-4-----4-4444------4-4444------4-44442--22224--4444-4-2------------|
E|--2-2--------------------------------------------------------------------5-2-2-2----|

He Goes Lyrics from thebluedawns.tumblr.com
Intto

Verse 1
There's a certain kind of man                  
That you fail to understand                       
He doesn't measure our success               
By the items we possess                             
His actions reinforce his words                 
He doesn't mind if they're unheard          
Opinions aren't of his concern              
Because he answers to the earth               

Chorus
Watch him go/Yeah yeah             
He knows             
Watch him go/Yeah yeah              
Never too fast, never too slow,
Moves at his own speed as he goes     

Verse 2
He doesn't doubt his direction,   
He knows exactly who he is              
And doesn't let people's perception of him     
Define the life he lives    
He lets his conscience be his guide    
His eyes are open wide    
Instead of following the flow     
He goes against the tide   

Chorus

Solo Part

Chorus (w/ ending)
************************************

| /   slide up
| \   slide down
| h   hammer-on
| p   pull-off
| ~   vibrato
| +   harmonic
| x   Mute note
| b   Bend
| pb  Pre-bend
| br  Bend release
| pbr Pre-bend release
| brb Bend release bend

************************************
Добавлено: 01.10.2015
Вам также может быть интересно:
Другие материалы по этой песне:
  • Аккорды и текст

Страница создана 01.10.2015
http://primanota.ru/blue-dawns/he-goes-chords.htm
Привет, Гость.
Предлагаем пройти революционный курс по гитаре.
Подарок от PrimaNota.Ru, забирай!