PrimaNota.ru - самый крупный в мире бесплатный архив песенных текстов, аккордов, табулатур и нот


The Blue Dawns - Get In Line - таба, видео

Регистрация Запомнить меня
Войти через:  Facebook Google Twitter Vk Yandex Mail.ru

The Blue Dawns - Get In Line - таба, видео

Печатать
Просмотров: 65
-------------------------------------------------------------------------------
                             GET IN LINE - The Blue Dawns
-------------------------------------------------------------------------------
Tabbed by: Edgar MB
E-mail:

Tuning: E A D G B E

Hola amigos que lleguen a ver esto. Es mi primera tablatura y no esta completa, pero estoy trabajando en 
terminarla. Espero que este apenas pequeño pedazo de la rola les agrade. :)

e|-----------------------------------------------------------------|
B|-----------------------------------------------------------------|
G|-----------------------------------------------------------------| x3 
D|------------4--------------------------4-------------------------|
A|--------5-7---7-5-0-0--7-5---------5-7---7-5-0-0--7-5------------|
E|-7-7--7---------------------7-7--7-------------------------------|

e|-----------------------------|
B|-----------------------------|
G|-----------------------------| x4
D|------------4----------------|
A|--------5-7---7-5-0-0--7-5---|
E|-7-7--7----------------------|
   x x  x x x x x x x x  x x

e|----------------|
B|----------------|
G|----------------|
D|-9---11--12-----|
A|-9---11--12-----|
E|-7---9---10-----|

e|-----------------------------|
B|-----------------------------|
G|-----------------------------|x3
D|------------4----------------|
A|--------5-7---7-5-0-0--7-5---|
E|-7-7--7----------------------|

e|------------------------------------------------------|
B|------------------------------------------------------|
G|------------------------------------------------------|
D|------------4--------7--7--7--7-----12--12--12--12----|
A|--------5-7---7-5----7--7--7--7-----12--12--12--12----|
E|-7-7--7--------------5--5--5--5-----10--10--10--10----|

e|-----------------------------|
B|-----------------------------|
G|-----------------------------| x4
D|------------4----------------|
A|--------5-7---7-5-0-0--7-5---|
E|-7-7--7----------------------|
   x x  x x x x x x x x  x x

e|----------------|
B|----------------|
G|----------------|
D|-9---11--12-----|
A|-9---11--12-----|
E|-7---9---10-----|

e|-----------------------------|
B|-----------------------------|
G|-----------------------------|x3
D|------------4----------------|
A|--------5-7---7-5-0-0--7-5---|
E|-7-7--7----------------------|

e|------------------------------------------------------|
B|------------------------------------------------------|
G|------------------------------------------------------|
D|------------4--------7--7--7--7-----12--12--12--12----|
A|--------5-7---7-5----7--7--7--7-----12--12--12--12----|
E|-7-7--7--------------5--5--5--5-----10--10--10--10----|


************************************

| /   slide up
| \   slide down
| h   hammer-on
| p   pull-off
| ~   vibrato
| +   harmonic
| x   Mute note
| b   Bend
| pb  Pre-bend
| br  Bend release
| pbr Pre-bend release
| brb Bend release bend

************************************
Добавлено: 01.06.2016
Другие материалы по этой песне:
  • Аккорды и текст

Страница создана 01.06.2016
http://primanota.ru/blue-dawns/get-in-line-chords.htm
Привет, Гость.
Предлагаем пройти революционный курс по гитаре.
Подарок от PrimaNota.Ru, забирай!