PrimaNota.ru - самый крупный в мире бесплатный архив песенных текстов, аккордов, табулатур и нот


The Blue Collars - Happy Pills - таба, видео

Регистрация Запомнить меня
Войти через:  Facebook Google Twitter Vk Yandex Mail.ru

The Blue Collars - Happy Pills - таба, видео

Печатать
Просмотров: 131
Уроки эстрадного вокала в Санкт-Петербурге
Standard
Intro:
e|---------------------------------------------------------------------------|
B|-------12-------12--------12------11-12------------------------------------|
G|----11-------11-------11-------11------11----------------------------------|
D|---9--9-----9--9----11--11----9--9-----------------------------------------|
A|--9-------11-------9---------9---------------------------------------------|
E|---------------------------------------------------------------------------|
Verse (Palm Muted):
e|---------------------------------------------------------------------------|
B|---------------------------------------------------------------------------|
G|---------------------------------------------------------------------------|
D|---99-11-9---999-11-9---999-11-9---999-11-9--------------------------------|
A|---xx-x--x---xxx-x--x---xxx-x--x---xxx-x--x--------------------------------|
E|---77-7--7---777-7--7---777-7--7---777-7--7--------------------------------|

e|---------------------------------------------------------------------------|
B|---------------------------------------------------------------------------|
G|---------------------------------------------------------------------------|
D|---99-11-9---999-11-9---999-11-9---999-11-9--------------------------------|
A|---77-7--7---777-7--7---777-7--7---777-7--7--------------------------------|
E|---------------------------------------------------------------------------|
Play these for the verse and chorus however many times, but not palm muted for the chorus.
I tend to put my little finger on the 11th randomly because it's hard to figure out exactly.


Добавлено: 21.12.2015
Другие материалы по этой песне:
  • Аккорды и текст

Страница создана 21.12.2015
http://primanota.ru/blue-collars/happy-pills-chords.htm
Привет, Гость.
Предлагаем пройти революционный курс по гитаре.
Подарок от PrimaNota.Ru, забирай!