PrimaNota.ru - самый крупный в мире бесплатный архив песенных текстов, аккордов, табулатур и нот


Blue Cheer - Summertime Blues - текст песни, таба, бас-таба, видео

Регистрация Запомнить меня
Войти через:  Facebook Google Twitter Vk Yandex Mail.ru

Blue Cheer - Summertime Blues - текст песни, таба, бас-таба, видео

Печатать
Просмотров: 300
Авторы: Eddie Cochran, Jerry Capehart

Intro:
E--------------------------------------|
B--------------------------------------|
G--------------------------------------| 
D----------12-12-15-10-10-13-----------|
A-12-12-15-10-10-13--8-8--11-10-10-13--|
E-10-10-13-------------------8--8--11--|

Verse:                                        (With bar)
E-------------------------------------------------------------------|
B-------------------------------------------------------------------|
G-/5-5-5-55-/5-5-5-55-/5-5-5-55-/5-5-5-55-----8-9-10v--12-12-12-----| 
D-/5-5-5-55-/5-5-5-55-/5-5-5-55-/5-5-5-55--10-------------------10\-|
A-/3-3-3-33-/3-3-3-33-/3-3-3-33-/3-3-3-33---------------------------|
E-------------------------------------------------------------------|

Chorus:
E------------------------------------------------------|
B------------------------------------------------------|
G-10-10-10-10-10-10-10-10-10-10-10-10-10-10-10-10------| 
D-10-10-10-10-10-10-10-10-10-10-10-10-10-10-10-10-10---|
A-8--8--8--8--8--8--8--8--8--8--8--8--8--8--8--8--10---|
E-------------------------------------------------8----|

Chorusfill:
 (With bar)  (Dive one octave)
E-------------------|
B--------------13v--| (In the 4th chorus you just  
G-10v---------------| skip the note on the B-string.)
D-------------------|
A-------------------|
E-------------------|

Chords in the solo:
Bb     Eb      F

After the solo you repeat the intro and then play this:
(tremolo pick every note for 2 bars 
 except for the last one, which holds for 4 bars)
E-----------------------------|
B-----------------------------|
G-----------------------------|
D-----------------------------|
A-----------------------------|
E-11-12-13-14-15-16-17-18-19--|

Ok, that's it.
You have to listen to the song and put all parts in the right places.
Добавлено: 28.05.2012
Другие материалы по этой песне:

Страница создана 04.05.2012
http://primanota.ru/blue-cheer/summertime-blues-chords.htm
Привет, Гость.
Предлагаем пройти революционный курс по гитаре.
Подарок от PrimaNota.Ru, забирай!