PrimaNota.ru - самый крупный в мире бесплатный архив песенных текстов, аккордов, табулатур и нот


Blue Cheer - Magnolia Caboose Baby Finger - таба, видео

Регистрация Запомнить меня
Войти через:  Facebook Google Twitter Vk Yandex Mail.ru

Blue Cheer - Magnolia Caboose Baby Finger - таба, видео

Печатать
Просмотров: 172
These are the main riffs for Blue Cheer's Magnolia Caboose. This does not include the 
solo parts, I don't have the the time nor do I have the skills to figure any of that out.

Normally I wouldn't post such an incomplete tab, but this is a lovely song and there's 
any tab out there for it.

E-------------------------------------|
B-------------------------------------|
G-7/9\7-5-----------------------------|
D---------7/10\7-5-7-/10\7-5-/7\5---5-| 2x
A---------------------------------7---|
E-------------------------------------|

E----------------------------------|
B----------5~-----5~---------------|
G-----/9\7-5~-----5~---------------|
D-7-7---------7-5----7-5-7p5-----5-| 8x
A----------------------------5-7---|
E----------------------------------|

E--------------------------|
B-----7~-5~----------------|
G-----7~-5~---7-8-9--------|
D-7-7-------7-7-8-9--5-6-7-| 1x
A-------------5-6-7--5-6-7-|
E--------------------3-4-5-|
Добавлено: 24.02.2012
Другие материалы по этой песне:

Страница создана 24.02.2012
http://primanota.ru/blue-cheer/magnolia-caboose-baby-finger-chords.htm
Привет, Гость.
Предлагаем пройти революционный курс по гитаре.
Подарок от PrimaNota.Ru, забирай!