PrimaNota.ru - самый крупный в мире бесплатный архив песенных текстов, аккордов, табулатур и нот


Blue Cat - Close Your Eyes - бас-таба, видео

Регистрация Запомнить меня
Войти через:  Facebook Google Twitter Vk Yandex Mail.ru

Blue Cat - Close Your Eyes - бас-таба, видео

Печатать
Просмотров: 92
Closer Your Eyes Bass Tab
by Blue Cat Trio

*I've tried to make it as accurate as I can*

http://www.youtube.com/watch?v=lh4O4hRb05c <- This is the video I used to make this tab

Tuning: Drop D (D A D G)

(0:31)                                         

G|----------------------------------------|     
D|----------------------------------------|  x3
A|----------------------------------------|   
D|7-7-5-7--7-7-7-2-222-0-0-0--0-0-0-55597-|

After the 3rd time play this (Not 100% correct)

G|------------------------------------7--5--4--9--------|     
D|------------------------------------------------------|  
A|----------------------------------5--3--2--7---5h7----|   
D|7-7-5-7--7-7-7-2-222-0-0-0--0-0-0---------------------|

(1:02)

G|------------------------------------|     
D|------------------------------------| x7 
A|------------------------------------|   
D|7-7-5-7--777-2-22-0-0-0--000-2-2-97-|

After 7th time play this (Not 100% correct)

G|--------------------------------------------|     
D|--------------------------------------------| 
A|-------------------------------5-3-2-5h7----|   
D|7-7-5-7--777-2-22-0-0-0--000-0--0-0-0---5h7-|

(2:04)

G|------------------------------------|     
D|------------------------------------| x12 
A|------------------------------------|   
D|7-7-5-7--777-2-22-0-0-0--000-2-2-97-|

After 12th time play this (Not 100% correct)

G|--------------------------------------------|     
D|--------------------------------------------| 
A|-------------------------------5-3-2-5h7----|   
D|7-7-5-7--777-2-22-0-0-0--000-0--0-0-0---5h7-|

(3:35-4:07 Interlude thing)

(4:08)
G|------------------------------------|     
D|------------------------------------| 
A|------------------------------------|   
D|7-7-5-7--777-2-22-0-0-0--000-2-2-97-|

(5:02)

G|------------------------------------|     
D|------------------------------------|  
A|------------------------------------|   
D|7-7-5-7--777-2-22-0-0-0--000-0-0----|

(5:09)

G|------------------------------------|     
D|------------------------------------| 
A|------------------------------------|   
D|7-7-5-7--777-2-22-0-0-0--000-2-2-7--|

(5:17)

G|--------------------------------------------|     
D|--------------------------------------------| 
A|-------------------------------5-3-2-5h7----|   
D|7-7-5-7--777-2-22-0-0-0--000-0--0-0-0---5h7-|

END



Добавлено: 09.10.2013
Другие материалы по этой песне:
  • Аккорды и текст

Страница создана 09.10.2013
http://primanota.ru/blue-cat/close-your-eyes-chords.htm
Привет, Гость.
Предлагаем пройти революционный курс по гитаре.
Подарок от PrimaNota.Ru, забирай!