PrimaNota.ru - самый крупный в мире бесплатный архив песенных текстов, аккордов, табулатур и нот


Blowsight - How I Get What I Deserve - таба, видео

Регистрация Запомнить меня
Войти через:  Facebook Google Twitter Vk Yandex Mail.ru

Blowsight - How I Get What I Deserve - таба, видео

Печатать
Просмотров: 100
Band: Blowsight
Song: How I Get What I Deserve
Album: Destination Terrorville
Year: 2007
Tunning: Drop C (CGCFAD)
Length: 4:27

Tabbed by Leveler


Intro (0:35 to 0:46)

D||-------------------|-------------------|-------------------|-------------------|
A||-------------------|-------------------|-------------------|-------------------|
F||-7-7-7-797-6-6-6-6-|-7-7-7-797-6-6-6-6-|-7-7-7-797-6-6-6-6-|-7-7-7-797-6-6-6-6-|
C||-------------------|-------------------|-------------------|-------------------|
G||-------------------|-------------------|-------------------|-------------------|
C||-------------------|-------------------|-------------------|-------------------|

(0:47 to 0:59)

D||---------------------|---------------------|---------------------|---------------------|
A||---------------------|---------------------|---------------------|---------------------|
F||-----7-6-6-6-7---777-|-----7-6-6-6-9-7-7---|---------------------|---------------------|
C||-000-----------0-----|-000---------------0-|-5555--7-9-5555--7-9-|-22-0--22-0--2-0-555-|
G||-000-5-4-4-4-5-0-555-|-000-5-4-4-4-7-5-5-0-|-5555--7-9-5555--7-9-|-22-0--22-0--2-0-333-|
C||-000-----------0-----|-000---------------0-|-5555--7-9-5555--7-9-|-22-0--22-0--2-0-----|

Verse (1:00 to 1:25) // Palm-Muted

D||--------------------|--------------------|--------------------|--------------------|
A||--------------------|--------------------|--------------------|--------------------|
F||--------------------|--------------------|--------------------|--------------------|
C||-7777---------------|--------------------|------7777----------|--------------------|
G||-5555-7777-9999-9-9-|-9999-4444-5555-5-5-|-5555-5555-7777-7-7-|-2222-4444-5555-5-5-|
C||------7777-9999-9-9-|-9999-4444-5555-5-5-|-5555------7777-7-7-|-2222-4444-5555-5-5-|

D||--------------------|--------------------|--------------------|--------------------|
A||--------------------|--------------------|--------------------|--------------------|
F||--------------------|--------------------|--------------------|--------------------|
C||-7777---------------|--------------------|------7777----------|--------------------|
G||-5555-7777-9999-9-9-|-9999-4444-5555-5-5-|-5555-5555-7777-7-7-|-2222-4444-5555-5-5-|
C||------7777-9999-9-9-|-9999-4444-5555-5-5-|-5555------7777-7-7-|-2222-4444-5555-5-5-|

Pre-Chorus (1:26 to 1:30)
                     Drums only
D||-----------------|-----------------|
A||-----------------|-----------------|
F||-----------------|-----------------|
C||-5-x-5-x-5-x-5-x-|-----------------|
G||-5-x-5-x-5-x-5-x-|-----------------|
C||-5-x-5-x-5-x-5-x-|-----------------|

Chorus (1:30 to 1:56)

D||----------------------------------------|----------------------------------------|
A||----------------------------------------|----------------------------------------|
F||----------------------------------------|----------------------------------------|
C||-000-00-0--222-22-2--555-55-5--777-77-7-|-999-99-9--777-77-7--666-66-6--555------|
G||-000-00-0--222-22-2--555-55-5--777-77-7-|-999-99-9--777-77-7--777-77-7--555-5757-|
C||-000-00-0--222-22-2--555-55-5--777-77-7-|-999-99-9--777-77-7--666-66-6--555-5757-|

D||----------------------------------------|----------------------------------------|
A||----------------------------------------|----------------------------------------|
F||----------------------------------------|----------------------------------------|
C||-000-00-0--222-22-2--555-55-5--777-77-7-|-999-99-9--777-77-7--666-66-6-----------|
G||-000-00-0--222-22-2--555-55-5--777-77-7-|-999-99-9--777-77-7--777-77-7-----------|
C||-000-00-0--222-22-2--555-55-5--777-77-7-|-999-99-9--777-77-7--666-66-6-----------|

Interlude, same as Intro (1:56 to 2:08)

D||---------------------|---------------------|---------------------|---------------------|
A||---------------------|---------------------|---------------------|---------------------|
F||-----7-6-6-6-7---777-|-----7-6-6-6-9-7-7---|---------------------|---------------------|
C||-000-----------0-----|-000---------------0-|-5555--7-9-5555--7-9-|-22-0--22-0--2-0-555-|
G||-000-5-4-4-4-5-0-555-|-000-5-4-4-4-7-5-5-0-|-5555--7-9-5555--7-9-|-22-0--22-0--2-0-333-|
C||-000-----------0-----|-000---------------0-|-5555--7-9-5555--7-9-|-22-0--22-0--2-0-----|

Verse 2 (2:09 to 2:34) // Palm-Muted

D||--------------------|--------------------|--------------------|--------------------|
A||--------------------|--------------------|--------------------|--------------------|
F||--------------------|--------------------|--------------------|--------------------|
C||-7777---------------|--------------------|------7777----------|--------------------|
G||-5555-7777-9999-9-9-|-9999-4444-5555-5-5-|-5555-5555-7777-7-7-|-2222-4444-5555-5-5-|
C||------7777-9999-9-9-|-9999-4444-5555-5-5-|-5555------7777-7-7-|-2222-4444-5555-5-5-|

D||--------------------|--------------------|--------------------|--------------------|
A||--------------------|--------------------|--------------------|--------------------|
F||--------------------|--------------------|--------------------|--------------------|
C||-7777---------------|--------------------|------7777----------|--------------------|
G||-5555-7777-9999-9-9-|-9999-4444-5555-5-5-|-5555-5555-7777-7-7-|-2222-4444-5555-5-5-|
C||------7777-9999-9-9-|-9999-4444-5555-5-5-|-5555------7777-7-7-|-2222-4444-5555-5-5-|


Pre-Chorus 2 (2:34 to 2:39)
                     Drums only
D||-----------------|-----------------|
A||-----------------|-----------------|
F||-----------------|-----------------|
C||-5-x-5-x-5-x-5-x-|-----------------|
G||-5-x-5-x-5-x-5-x-|-----------------|
C||-5-x-5-x-5-x-5-x-|-----------------|

Chorus 2 (2:39 to 3:04)

D||----------------------------------------|----------------------------------------|
A||----------------------------------------|----------------------------------------|
F||----------------------------------------|----------------------------------------|
C||-000-00-0--222-22-2--555-55-5--777-77-7-|-999-99-9--777-77-7--666-66-6--555------|
G||-000-00-0--222-22-2--555-55-5--777-77-7-|-999-99-9--777-77-7--777-77-7--555-5757-|
C||-000-00-0--222-22-2--555-55-5--777-77-7-|-999-99-9--777-77-7--666-66-6--555-5757-|

D||----------------------------------------|----------------------------------------|
A||----------------------------------------|----------------------------------------|
F||----------------------------------------|----------------------------------------|
C||-000-00-0--222-22-2--555-55-5--777-77-7-|-999-99-9--777-77-7--666-66-6-----------|
G||-000-00-0--222-22-2--555-55-5--777-77-7-|-999-99-9--777-77-7--777-77-7-----------|
C||-000-00-0--222-22-2--555-55-5--777-77-7-|-999-99-9--777-77-7--666-66-6-----------|

Bridge (3:05 to 3:17) with no guitar, notes C (x2) F (x1) G (x1)

(3:17 to 3:30)
    C          F    G
D||-10-9-7-5-|-10-9-7---|
A||----------|----------|
F||----------|----------|
C||----------|----------|
G||----------|----------|
C||----------|----------|

(3:31 to 3:43)

D||-------------------------|-------------------------|
A||-------------------------|-------------------------|
F||-------------------------|-------------------------|
C||-9999-7777-5555-777555---|-9999-7777-6666--55-77-0-|
G||-9999-7777-5555-777555---|-9999-7777-7777--55-77-0-|
C||-9999-7777-5555-777555---|-9999-7777-6666--55-77-0-|

Chorus 3 (3:44 to 4:10)
    Only piano here
D||----------------------------------------|----------------------------------------|
A||----------------------------------------|----------------------------------------|
F||----------------------------------------|----------------------------------------|
C||----------------------------------------|-999-99-9--777-77-7--666-66-6--555------|
G||----------------------------------------|-999-99-9--777-77-7--777-77-7--555-5757-|
C||----------------------------------------|-999-99-9--777-77-7--666-66-6--555-5757-|

D||----------------------------------------|----------------------------------------|
A||----------------------------------------|----------------------------------------|
F||----------------------------------------|----------------------------------------|
C||-000-00-0--222-22-2--555-55-5--777-77-7-|-999-99-9--777-77-7--666-66-6--5--------|
G||-000-00-0--222-22-2--555-55-5--777-77-7-|-999-99-9--777-77-7--777-77-7--5--------|
C||-000-00-0--222-22-2--555-55-5--777-77-7-|-999-99-9--777-77-7--666-66-6--5--------|

Outro (4:11 to 4:27)

D||----------------------------------------|----------------------------------------|*
A||----------------------------------------|----------------------------------------|*
F||----------------------------------------|----------------------------------------|*
C||-999-99-9--777-77-7--666-66-6--555-5777-|-999-99-9--777-77-7--666-66-6--55-77--0-|*
G||-999-99-9--777-77-7--777-77-7--555-5777-|-999-99-9--777-77-7--777-77-7--55-77--0-|*
C||-999-99-9--777-77-7--666-66-6--555-5777-|-999-99-9--777-77-7--666-66-6--55-77--0-|*



And it's done!
Blowsight rules and this is how they do it!
By the way, this is my first whole song done it by ear and so my first tab, this is 
brand new for me! I feel so great.

* Hope you enjoy it, and feel free to send any corrections you think this tab need via PM.
Добавлено: 10.11.2013
Другие материалы по этой песне:
  • Аккорды и текст

Страница создана 10.11.2013
http://primanota.ru/blowsight/how-i-get-what-i-deserve-chords.htm
Привет, Гость.
Предлагаем пройти революционный курс по гитаре.
Подарок от PrimaNota.Ru, забирай!