PrimaNota.ru - самый крупный в мире бесплатный архив песенных текстов, аккордов, табулатур и нот


Blouse - In A Feeling Like This - таба, видео

Регистрация Запомнить меня
Войти через:  Facebook Google Twitter Vk Yandex Mail.ru

Blouse - In A Feeling Like This - таба, видео

Печатать
Просмотров: 79
-------------------------------------------------------------------------------
                     In A Feeling Like This - Blouse
-------------------------------------------------------------------------------
Tabbed by: gracie331
E-mail: gracie31@gmail.com

- Okay, so it turns out that there is no tab for this anywhere (that I could find), so I decided to give it 
a shot myself. I did the main riff by ear and I'm still in the process of trying to figure out the second
guitar part (before the chorus). Please shoot me an e-mail to let me know if what I did is wrong, it sounds 
pretty right to me, but who knows. Thank you so much!!!

Tuning: Standard

INTRO (and part of the verse as well)- 0:00-0:39 - (this also starts back up later on at 1:23-1:42)

e|---------------------------------------------------------------------------|
B|---------------------------------------------------------------------------|
G|---------------------------------------------------------------------------|
D|------13--13---13--11----11----11------------------------------------------| x10
A|----------------------11----11----10---------------------------------------|
E|---7---------7-------------------------------------------------------------|

BEFORE CHORUS - 0:39-0:45 

e|---------------------------------------------------------------------------|
B|---------------------------------------------------------------------------|
G|---------------------------------------------------------------------------|
D|---------------------------------------------------------------------------|
A|---------------------------------------------------------------------------|
E|--2-2-222--4-4-4-444--2-2-222--4-4-4-444-----------------------------------|

Добавлено: 06.12.2015
Вам также может быть интересно:
Другие материалы по этой песне:
  • Аккорды и текст

Страница создана 06.12.2015
http://primanota.ru/blouse/in-a-feeling-like-this-chords.htm
Привет, Гость.
Предлагаем пройти революционный курс по гитаре.
Подарок от PrimaNota.Ru, забирай!