PrimaNota.ru - самый крупный в мире бесплатный архив песенных текстов, аккордов, табулатур и нот


Blotted Science - Rem - таба, видео

Регистрация Запомнить меня
Войти через:  Facebook Google Twitter Vk Yandex Mail.ru

Blotted Science - Rem - таба, видео

Печатать
Просмотров: 181
Уроки эстрадного вокала в Санкт-Петербурге
Авторы музыки: Ron Jarzombek

Band - Blotted Science
Song - R.E.M.

Tuning: Standard

(0:05)
e|---------|-------------------|------------------------|---------|
B|---------|-------------------|------------------------|---------|
G|---------|-------------------|------------------------|---------|
D|---------|-------------------|-------------12-13------|------9--|
A|---------|--------9-------12-|-11-12-11-11------------|---------|
E|-2-3-----|--7-6-7------------|------------------------|---------|

e|---------------------|---------------|----------------------|----------|
B|---------------------|---------------|----------------------|----------|
G|-----------------10--|----------10-9-|----------------------|----------|
D|------11------11-----|-11----11------|----------------------|----------|
A|---10------10--------|----10---------|-8-----8-----------9--|----------|
E|---------------------|---------------|---0-0---0-0-0-7-8----|--4-5-4-4-|

e|-----------------------------------|----------------------|
B|-----------------------------------|----------------------|
G|-----------------------------------|----------------------|
D|-12h13-------------------11h15p11--|----------------------|
A|-------14-10-14-10-14-10-----------|---9---------9--------|
E|-----------------------------------|-----0-8-7-8------8-7-|

e|---------|---------------|------------------|
B|---------|---------------|------------------|
G|---------|---------------|------------------|
D|---------|---------------|------------------|
A|---9-----|-------9-------|-----9-----12-11--|
E|-8---8-7-|-8-7-8---8-7-8-|-7-8--------------|

e|-----------------------|-------------------------------------|
B|-----------------------|-------------------------------------|
G|-----------------------|-------------------------------------|
D|-----------------6h7-6-|-6h7-6-6----------------6h7----------|
A|-----------------------|-------------------------------------|
E|----10h11-10-10--------|------------10h11-10-10------4h5-4-4-|

e|-------------------------|---------|-----------------------------|
B|-------------------------|---------|-----------------------------|
G|-------------------------|---------|-----------------------------|
D|-------------------------|---------|---13-0-0-13-0-0-13p9----11--|
A|-------5-----------------|------5--|----------------------10-----|
E|-4-5-4---4-4-5-----4-5-4-|-4--4----|-----------------------------|


(0:37)
e|-----------------------------------|-----------------------|
B|-----------------------------------|-----------------------|
G|-----------------------------------|-----------------------|
D|-----------------------------------|-----------------------|
A|---------------------9-------------|-----------------------|
E|-13-0-0-13-0-0-8-7-8---8-7-0-0-1-0-|-13-0-0-13-0-0-7-8-7-0-|x2

e|-----------------------------------|-------------------|
B|-----------------------------------|-------------------|
G|-----------------------------------|-------------------|
D|-----------------------------------|-------------------|
A|---------------------9-------------|-------------------|
E|-13-0-0-13-0-0-8-7-8---8-7-0-0-1-0-|-13-0-0-13-0-0-7-8-|

e|-------------------------|-----------------|
B|-------------------------|-----------------|
G|-------------------------|-----------------|
D|-------------------------|-----------------|
A|-----------------5-------|-----------------|
E|-4h5-4-4---4-5-4---4-4h5-|-4h5-4-4---4-4h5-|x2

e|-------------------------|--------------|
B|-------------------------|--------------|
G|-------------------------|--------------|
D|-------------------------|--------------|
A|-----------------5-------|--------------|
E|-4h5-4-4---4-5-4---4-4h5-|-4h5-4-4---4--|

e|---------------------------|---------------------|
B|---------------------------|---------------------|
G|---------------------------|---------------------|
D|-------------6h7-6-6h7-6-6-|-------------6h7p6p0-|
A|---------------------------|---------------------|
E|-10h11-10-10---------------|-10h11-10-10---------|x2

e|-----------------------------------|-------------------------|
B|-----------------------------------|-------------------------|
G|-8p4-0-4-0-4-0-6-10p6-0-6-10p6-0-6-|-8p4-0-4-0-4-8p4-0-4-0-4-|
D|-----------------------------------|-------------------------|
A|-----------------------------------|-------------------------|
E|-----------------------------------|-------------------------|

e|-----------------------|------------------------------|
B|-----------------------|------------------------------|
G|-0-6-10p6-0-6-10p6-0-6-|-8p4-0-4-0-4-8p4-0-4-0-4-0-6--|
D|-----------------------|------------------------------|
A|-----------------------|------------------------------|
E|-----------------------|------------------------------|

e|-----------------------------------|-----------------------|
B|-----------------------------------|-----------------------|
G|-----------------------------------|-----------------------|
D|-----------------------------------|-----------------------|
A|---------------------9-------------|-----------------------|
E|-13-0-0-13-0-0-8-7-8---8-7-0-0-1-0-|-13-0-0-13-0-0-7-8-7-0-|x2

e|-----------------------------------|-------------------|
B|-----------------------------------|-------------------|
G|-----------------------------------|-------------------|
D|-----------------------------------|-------------------|
A|---------------------9-------------|-------------------|
E|-13-0-0-13-0-0-8-7-8---8-7-0-0-1-0-|-13-0-0-13-0-0-7-8-|
Добавлено: 25.05.2012
Другие материалы по этой песне:

Страница создана 25.05.2012
http://primanota.ru/blotted-science/rem-chords.htm
Привет, Гость.
Предлагаем пройти революционный курс по гитаре.
Подарок от PrimaNota.Ru, забирай!