PrimaNota.ru - самый крупный в мире бесплатный архив песенных текстов, аккордов, табулатур и нот


Blossoms - You Pulled A Gun On Me - таба, видео

Регистрация Запомнить меня
Войти через:  Facebook Google Twitter Vk Yandex Mail.ru

Blossoms - You Pulled A Gun On Me - таба, видео

Печатать
Просмотров: 119
-------------------------------------------------------------------------------
                     You Pulled A Gun On Me - Blossoms
-------------------------------------------------------------------------------
The first tab I have ever done so it may not be 100% correct. Leave a comment if you can 
suggest any changes.

This is heard at the very beginning of the song and can be heard until the chorus. It 
then comes back in at various stages throughout the song where it easily heard.

The first chord (35543) is the one which is played at the very end of the song.

Tabbed by: LJN

Tuning:Standard

e|----3---3---3---1-----------------------------------------------------|
B|----4---4---3---1-----------------------------------------------------|
G|----5---5---4---2-----------------------------------------------------|
D|----5-3-5-5-5-3-3-----------------------------------------------------|
A|--3-3---3-5-5-3-3-----------------------------------------------------|
E|----------------------------------------------------------------------|


************************************

| /   slide up
| \   slide down
| h   hammer-on
| p   pull-off
| ~   vibrato
| +   harmonic
| x   Mute note
| b   Bend
| pb  Pre-bend
| br  Bend release
| pbr Pre-bend release
| brb Bend release bend

************************************
Добавлено: 27.12.2015
Другие материалы по этой песне:
  • Аккорды и текст

Страница создана 27.12.2015
http://primanota.ru/blossoms/you-pulled-a-gun-on-me-chords.htm
Привет, Гость.
Предлагаем пройти революционный курс по гитаре.
Подарок от PrimaNota.Ru, забирай!