PrimaNota.ru - самый крупный в мире бесплатный архив песенных текстов, аккордов, табулатур и нот


Blossoms - At Most A Kiss - аккорды и текст, видео

Регистрация Запомнить меня
Войти через:  Facebook Google Twitter Vk Yandex Mail.ru

Blossoms - At Most A Kiss - аккорды и текст, видео

Печатать
Просмотров: 56
Новый альбом группы 'Черный Кузнец' по культовому сериалу 'Сверхъестественное'!
Авторы музыки: Blossoms
Авторы текста: Tom Ogden
At Most A Kiss
Blossoms
[Intro] - Am F Am F Am F

e----------------------------------------------------------|
b----------1-3---5-3-1-0-1-3---------1-3----5-3--3-1---1-3-|
g-2--2-2-2-----2-------------2--2-2-2----2-2----2----2-----|
d----------------------------------------------------------|
a----------------------------------------------------------|
E----------------------------------------------------------|
OR ( i prefer on acoustic )
e---------------------------------------------------------------
b-1--1-1-1-----1-------------1--1-1-1-----1--------------------1
g-2--2-2-2-----2-------------2--2-2-2-----2--------------------2
d-2--2-2-2-----2-------------2--2-2-2-----2--------------------2
a-0--0-0-0-3-5-0-7-5-3-0-3-5-0--0-0-0-3-5-0--0-7-5-0-5-3-0-3-5-0
E---------------------------------------------------------------


[Verse 1]

Am
I wrote to fear, to disappear
           G         F
At most a kiss, this time
Am
I'll be the boy, I'll packet the earth
           G          F
Into the abyss, we'll climb
           G          F
At most a kiss, this time


[Chorus]

Am
Is it on?
                             F
Someone said that you left town
                              Am
But I've been holding on too long
                               F
Someone said that, "Boy,she's gone",
         G               F            Am
If it's time, then I'm yours, so let me know


[Verse 2]

Am
She wedded her man

Let's elope to Japan
                       G          F
Between the Rosemary wilds we'll hide
Am
I thought I was your boy, the earths on hold
               G       F
I'll packet a stone I find
           G          F
At most a kiss, this time


[Chorus]

Am
Is it on?
                             F
Someone said that you left town
                              Am
But I've been holding on too long
                               F
Someone said that, "Boy,she's gone",
         G               F            Am
If it's time, then I'm yours, so let me know


[Bridge]

Am                               F
I was thinking you were always mine

We watched the skies fall down
Am                            F
We'll carry on when worlds divide

This party beast that makes no sound

e---------------------------------|
b--0-1-3-5-3-1-0---0-1-3----5-----|
g-2--------------2-------2----2-0-|
d---------------------------------|
a---------------------------------|
E---------------------------------|

e-------------------------------|
b--0-1-3-5-3-1-0---0-1-3-5-8-10-|
g-2--------------2--------------|
d-------------------------------|
a-------------------------------|
E-------------------------------|


[Chorus]

Am
Is it on?
                             F
Someone said that you left town
                              Am
But I've been holding on too long
                               F
Someone said that, "Boy,she's gone",
         G               F            Am
If it's time, then I'm yours, so let me know

Am


[Outro]

G           F
At most a kiss
G           F
At most a kiss
G           F
At most a kiss
G           F
At most a kiss
Добавлено: 13.12.2017
Другие материалы по этой песне:
  • Аккорды и текст

Страница создана 13.12.2017
http://primanota.ru/blossoms/at-most-a-kiss-chords.htm
Привет, Гость.
Предлагаем пройти революционный курс по гитаре.
Подарок от PrimaNota.Ru, забирай!