PrimaNota.ru - самый крупный в мире бесплатный архив песенных текстов, аккордов, табулатур и нот


Bloody Maiden - Decay - таба, видео

Регистрация Запомнить меня
Войти через:  Facebook Google Twitter Vk Yandex Mail.ru

Bloody Maiden - Decay - таба, видео

Печатать
Просмотров: 110
www.hometown.aol.com/bloodymaidenband

Song : Decay
Band : Bloody Maiden
Genre: Metal
Album: Absence Of A Soul
Author:Adam -X-


This song is played using "Drop D" tuning :

(D, A, D, G, B, E)

To get the exact timing, Refer to the song.
If you don't have the album, You can access
the song at http://www.mp3.com/bloodymaiden

|-------------------------|
| /   Slide up            |
| \   Slide down          |
| :   Repeat              |
| ~   slight bend         |
| h   Hammer-on/ pull off |
|-------------------------|

The following effects are required and
can be achieved through most multi effect
processors :

VERSE Guitar 1 = Octave
VERSE Guitar 2 = Phase
Chorus = Heavy Distortion 
Solos =  Octave
Outro =  Heavy Distortion
 
 [VERSE] Guitar 1        [VERSE] Guitar 2
 
E-----------------|    |-------------------| 
B-----------------|    |-------------------|   
G-----------------|    |-----3-------------|
D-----------------| :  |---3---3-----2-----| :                
A-1--1------------|    |-1---------2-------|                  
D-------2--2------|    |---------2---------|                                                                       
                          
    [CHORUS] 

E---------------|
B---------------|
G---------------|
D-3--3----------| :
A-1--1--2--2----|
D-------2--2----|
                         
 
    [SOLO 1]                      [SOLO 2]  

E----------------|   |------------------------------------|
B----------------|   |--------------------------8~-8~-----|
G--8~--8~--------| : |-7~-7~-/-9-9---7~-7~-/9-9-------9-9-|
D---------9~--9~-|   |------------------------------------|
A----------------|   |------------------------------------|
D----------------|   |------------------------------------|


  [SOLO 2 CONTINUED]  

E--10-10-12-12---10-10-12-12-|                                  
B----------------------------|                                  
G----------------------------|                              
D----------------------------| :                              
A----------------------------|                                
D----------------------------|


[OUTRO]

E------------------------|
B------------------------|
G------------------------|  
D------------------------| :      
A--0h1h0h1h0h1h0h1-------| 
D------------------2-2---|





     
Добавлено: 12.09.2013
Другие материалы по этой песне:
  • Аккорды и текст

Страница создана 10.08.2013
http://primanota.ru/bloody-maiden/decay-chords.htm
Привет, Гость.
Предлагаем пройти революционный курс по гитаре.
Подарок от PrimaNota.Ru, забирай!