PrimaNota.ru - самый крупный в мире бесплатный архив песенных текстов, аккордов, табулатур и нот


Bloodsoaked - Mauled - таба, видео

Регистрация Запомнить меня
Войти через:  Facebook Google Twitter Vk Yandex Mail.ru

Bloodsoaked - Mauled - таба, видео

Печатать
Просмотров: 154
------------------------------------------------------------------------
             SONG NAME: Mauled - Band Name: Bloodsoaked
------------------------------------------------------------------------
Tabbed by: Peter Hasselbrack

Web Site: http://www.facebook.com/bloodsoaked666

Email: peterhasselbrack[at]gmail[dot]com


Tuning: D-G-C-F-A-D

(First Riff played 5 times)
D|-----------------------------------------------------------|
A|-----------------------------------------------------------|
F|-----------------------------------------------------------|
C|-3-2-------------------------------------------------------|
G|-----3-2-5-4-----3-2---------------------------------------|
D|-------------5-4-----3-2--11111111444444442222222211111111-|


First Riff Continued)
D|----------------------------------------|
A|----------------------------------------|
F|----------------------------------------|
C|-3-2------------------------------------|
G|-----3-2-5-4-----3-2------1---4---2---1-|
D|-------------5-4-----3-2--1---4---2---1-|


(The last time the first riff is played it ends like this before going
into the 2nd riff)
D|-----------|
A|-----------|
F|-----------|
C|-----------|
G|-1---4---2-|
D|-1---4---2-|


(Second Riff played 2 times)
D|--------------------------------------------------------------------|
A|--------------------------------------------------------------------|
F|--------------------------------------------------------------------|
C|--------------------------------------------------------------------|
G|-------------------------11111111--------------------------11111111-|
D|-0-1-2-1-0-1-2-1-0-1-2-1-----------0-1-2-1-0-1-2-1-0-1-2-1----------|

(Second Riff Continued)
D|----------------------------------------------------|
A|----------------------------------------------------|
F|----------------------------------------------------|
C|----------------------------------------------------|
G|-------------------------11111111----------22222222-|
D|-0-1-2-1-0-1-2-1-0-1-2-1-----------0-1-2-1----------|

(Second Riff Continued)
D|--------------------------------------------------------------------|
A|--------------------------------------------------------------------|
F|--------------------------------------------------------------------|
C|--------------------------------------------------------------------|
G|-------------------------11111111--------------------------11111111-|
D|-0-1-2-1-0-1-2-1-0-1-2-1-----------0-1-2-1-0-1-2-1-0-1-2-1----------|

(Second Riff Continued)
D|--------------------------------------------------------------------|
A|--------------------------------------------------------------------|
F|--------------------------------------------------------------------|
C|--------------------------------------------------------------------|
G|-------------------------11111111----------22222222---------33333333|
D|-0-1-2-1-0-1-2-1-0-1-2-1-----------0-1-2-1----------0-1-2-1---------|

(Third Riff played 4 times)
D|----------------------------------|
A|----------------------------------|
F|----------------------------------|
C|----------------------------------|
G|-------------1111--------33332222-|
D|-111144443333----22221111---------|

(Fourth Riff played 5 times)
D|------------------------------------------------------------------|
A|------------------------------------------------------------------|
F|------------------------------------------------------------------|
C|------------------------------------------------------------------|
G|-------------------------------------------------1111111122222222-|
D|-000-111-000-222-000-111-000-222-000-111-000-222------------------|

(Back into the Third Riff played 4 times)
D|----------------------------------|
A|----------------------------------|
F|----------------------------------|
C|----------------------------------|
G|-------------1111--------33332222-|
D|-111144443333----22221111---------|

(This is how the Third riff ends before going
back into the first riff again)
D|------------------------------|
A|------------------------------|
F|------------------------------|
C|------------------------------|
G|-------------1111--1--4--2--1-|
D|-111144443333------1--4--2--1-|


The song go back into the first riff of the song
and then the last riff of the song is below:


(Last riff in the song played twice all the way through)
D|-------------------------------------------------------------------------|
A|-------------------------------------------------------------------------|
F|-------------------------------------------------------------------------|
C|-6-5---------------------6-5---------------------6-5---------------------|
G|-----6-5-8-7-----6-5---------6-5-8-7-----6-5---------6-5-8-7-----6-5-----|
D|-------------8-7-----6-5-------------8-7-----6-5-------------8-7-----6-5-|


D|---------------------------------|
A|---------------------------------|
F|---------------------------------|
C|-8-7-----8-7-----8-7-----8-7-----|
G|-----8-7-----8-7-----8-7-----8-7-|
D|---------------------------------|


D|-------------------------------------------------------------------------|
A|-------------------------------------------------------------------------|
F|-------------------------------------------------------------------------|
C|-6-5---------------------6-5---------------------6-5---------------------|
G|-----6-5-8-7-----6-5---------6-5-8-7-----6-5---------6-5-8-7-----6-5-----|
D|-------------8-7-----6-5-------------8-7-----6-5-------------8-7-----6-5-|


D|--------------------------------------------------------------|
A|--------------------------------------------------------------|
F|--------------------------------------------------------------|
C|-8-7-----8-7-----8-7-----8-7-----9-8-----9-8----9-8----9-8----|
G|-----8-7-----8-7-----8-7-----8-7-----9-8-----9-8----9-8---9-8-|
D|--------------------------------------------------------------|


All the riffs to the song are here, just listen and you will be playing it in no time.

Any questions please contact me (see above).


| /  slide up
| \  slide down
| h  hammer-on
| p  pull-off
| ~  vibrato
| +  harmonic
| x  Mute note
========================================================
Добавлено: 17.04.2012
Другие материалы по этой песне:
  • Аккорды и текст

Страница создана 17.04.2012
http://primanota.ru/bloodsoaked/mauled-chords.htm
Привет, Гость.
Предлагаем пройти революционный курс по гитаре.
Подарок от PrimaNota.Ru, забирай!