PrimaNota.ru - самый крупный в мире бесплатный архив песенных текстов, аккордов, табулатур и нот


Bloodsoaked - Lies - таба, видео

Регистрация Запомнить меня
Войти через:  Facebook Google Twitter Vk Yandex Mail.ru

Bloodsoaked - Lies - таба, видео

Печатать
Просмотров: 150
-----------------------------------------------------------------
SONG NAME: Lies - Band Name: BLOODSOAKED
-----------------------------------------------------------------
Tabbed by: Peter Hasselbrack

Email: peterhasselbrack[at]gmail[dot]com
Web Site: http://www.facebook.com/bloodsoaked666


Tuning: D-G-C-F-A-D

(The first main riff played by the first guitar)
D|---------------------------------------|
A|---------------------------------------|
F|---------------------------------------|
C|---------------------------------------|
G|---------------------------------------|
D|-000000000000---00--00000000--00000000-|


(First riff played by the 2nd guitar
D|----------------------------------------|
A|----------------------------------------|
F|----------------------------------------|
C|-9-----10-9-----10-9-----10-12-13-12-10-|
G|-7-----8--7-----8--7-----8--10-11-10-8--|
D|----------------------------------------|


(Main Second riff played 4 times)
D|--------------------------------------------------|
A|--------------------------------------------------|
F|--------------------------------------------------|
C|--------------------------------------------------|
G|-777777777777888877777777777788887777777777778888-|
D|--------------------------------------------------|

(Main Second riff continued)
D|------------------------------------------|
A|------------------------------------------|
F|------------------------------------------|
C|------------------------------------------|
G|-10-10-10-10-11-11-11-11-10-10-10-10-8888-|
D|------------------------------------------|


(The harmony of the 2nd riff played the last 2 times by the 2nd guitar)
D|----------------------------------------------------------------|
A|----------------------------------------------------------------|
F|----------------------------------------------------------------|
C|-999999999999-10-10-10-10-999999999999-10-10-10-10-999999999999-|
G|----------------------------------------------------------------|
D|----------------------------------------------------------------|

(The harmony of the 2nd riff played the last 2 times continued)
D|----------------------------------------------------------|
A|----------------------------------------------------------|
F|----------------------------------------------------------|
C|-10-10-10-10-12-12-12-12-13-13-13-13-12-12-12-10-10-10-10-|
G|----------------------------------------------------------|
D|----------------------------------------------------------|

(The Last riff played 4 times)
D|------------------------------------------------------------------|
A|------------------------------------------------------------------|
F|------------------------------------------------------------------|
C|------------------------------------------------------------------|
G|------------------------------------------------------------------|
D|-0000000000001111000000000000111100000000000011113333444433331111-|


(The song ends on with this being held)
D|--------------------|
A|--------------------|
F|--------------------|
C|-2------------------|
G|-2------------------|
D|-0------------------|



All the riffs to the song are here, just listen and you will be playing it in no time.  
Any questions please contact me (see above).


| /  slide up
| \  slide down
| h  hammer-on
| p  pull-off
| ~  vibrato
| +  harmonic
| x  Mute note
===============================================================
Добавлено: 18.06.2012
Другие материалы по этой песне:
  • Аккорды и текст

Страница создана 18.06.2012
http://primanota.ru/bloodsoaked/lies-chords.htm
Привет, Гость.
Предлагаем пройти революционный курс по гитаре.
Подарок от PrimaNota.Ru, забирай!