PrimaNota.ru - самый крупный в мире бесплатный архив песенных текстов, аккордов, табулатур и нот


Bloodsoaked - Grotesque Memories - таба, видео

Регистрация Запомнить меня
Войти через:  Facebook Google Twitter Vk Yandex Mail.ru

Bloodsoaked - Grotesque Memories - таба, видео

Печатать
Просмотров: 131
-----------------------------------------------------------------
SONG NAME: Grotesque Memories - Band Name: BLOODSOAKED
-----------------------------------------------------------------
Tabbed by: Peter Hasselbrack

Web Site: http://www.facebook.com/bloodsoaked666

Email: peterhasselbrack[at]gmail[dot]com

Tuning: D-G-C-F-A-D

First Riff:
D|------------------------------------------------------|
A|------------------------------------------------------|
F|------------------------------------------------------|
C|------------------------------------------------------|
G|-------------------------------------------------7-6--|
D|-2-2-2-2-3-3-3-3-2-2-2-2-3-3-3-3-0-0-0-0-0-0-0-0-5-4--|

D|-----------------------------------------------------------------|
A|-----------------------------------------------------------------|
F|-----------------------------------------------------------------|
C|-----------------------------------------------------------------|
G|-----------------6-6-6-6-6-6-6-6-----------------7-7-7-7-7-7-7-7-|
D|-6-6-6-6-7-7-7-7-----------------7-7-7-7-8-8-8-8-----------------|

Second Riff:
D|-----------------------------------------------------------------|
A|-----------------------------------------------------------------|
F|-----------------------------------------------------------------|
C|-----------------------------------------------------------------|
G|-----------------3-3-3-3-2-2-2-2---------2-2-2-2-1-1-1-1-1-1-1-1-|
D|-2-2-2-2-1-1-1-1-----------------3-3-3-3-------------------------|

Third Riff:
D|--------------------------------|
A|--------------------------------|
F|--------------------------------|
C|--------------------------------|
G|----------5-4----------3-2------|
D|-0-2-3-2--3-2--0-2-3-2-----3-2--|

(Third Riff Continued, end of third riff)
D|----------|
A|----------|
F|----------|
C|----------|
G|-2-3-5-4--|
D|-0-1-3-2--|

Fourth Riff:
D|-----------------------------------------------------------------------|
A|-----------------------------------------------------------------------|
F|-----------------------------------------------------------------------|
A|-----------------------------------------------------------------------|
G|-----------------7-7-7-7-6-6-6-6---------5-5-5-5---------4-4-4-4-------|
D|-6-6-6-6-5-5-5-5-----------------7-7-7-7---------6-6-6-6---------------|

Fifth Riff:
D|-----------------------------------------------------------------|
A|-----------------------------------------------------------------|
F|-----------------------------------------------------------------|
C|-----------------------------------------------------------------|
G|---------------------------------4-4-4-4-3-3-3-3-6-6-6-6-5-5-5-5-|
D|-4-4-4-4-3-3-3-3-6-6-6-6-5-5-5-5---------------------------------|

Fourth Riff is played again! and then the Fifth Riff is played
again but the end is just four power cords:
D|----------|
A|----------|
F|----------|
C|-6-5-8-7--|
G|-4-3-6-5--|
D|----------|

Then back to the second riff and then to the third riff.
All the riffs to the song are listed here, just listen
to the song and you should be playing it in no time.

Any questions please contact me.



| /  slide up
| \  slide down
| h  hammer-on
| p  pull-off
| ~  vibrato
| +  harmonic
| x  Mute note
Добавлено: 11.05.2012
Другие материалы по этой песне:
  • Аккорды и текст

Страница создана 11.05.2012
http://primanota.ru/bloodsoaked/grotesque-memories-chords.htm
Привет, Гость.
Предлагаем пройти революционный курс по гитаре.
Подарок от PrimaNota.Ru, забирай!