PrimaNota.ru - самый крупный в мире бесплатный архив песенных текстов, аккордов, табулатур и нот


Bloodsoaked - Forever Damned - таба, видео

Регистрация Запомнить меня
Войти через:  Facebook Google Twitter Vk Yandex Mail.ru

Bloodsoaked - Forever Damned - таба, видео

Печатать
Просмотров: 183
Уроки эстрадного вокала в Санкт-Петербурге
-----------------------------------------------------------------
SONG NAME: Forever Damned - Band Name: BLOODSOAKED
-----------------------------------------------------------------
Tabbed by: Peter Hasselbrack

Email: peterhasselbrack[at]gmail[dot]com
Web Site: http://www.facebook.com/bloodsoaked666


Tuning: D-G-C-F-A-D


(First Riff Played 8 times)
D|------------------------------|    D|-------|
A|------------------------------|    A|-------|
F|------------------------------|    F|-------|
C|------------------------------|    C|-2-----|
G|-----22221111-----------------|    G|-2-----|
D|-1111--------2222000000000000-|    D|-0-----|


(Second Riff Played 4 times, including the break)
D|----------------------------------------------------------|
A|----------------------------------------------------------|
F|----------------------------------------------------------|
C|----------------------------------------------------------|
G|-------------------------------------------------66666666-|
D|-000000000000333322222222666655555555888877777777---------|


(This is the Second Riff Played with the Harmony at the end)
D|------------------------------|
A|------------------------------|
F|------------------------------|
C|---------------------88888888-|
G|-10-10-10-10-99999999---------|
D|------------------------------|


(Third Riff Played 4 times)
D|----------------------------------|
A|----------------------------------|
F|----------------------------------|
C|----------------------------------|
G|-------------------------22221111-|
D|-333344443333444422223333---------|


(Fourth Riff Played 4 times)
D|---------------------------------|
A|---------------------------------|
F|---------------------------------|
C|-------------------------------3-|
G|----------3-4-3-4----------3-4-1-|
D|-22222222-1-2-1-2-22222222-1-2---|


(The end of the song ends with these 4 cords)
D|---------|
A|---------|
F|---------|
C|-----4-3-|
G|-4-5-2-1-|
D|-2-3-----|


All the riffs to the song are here, just listen and you will be playing it in no time.  
Any questions please contact me (see above).


| /  slide up
| \  slide down
| h  hammer-on
| p  pull-off
| ~  vibrato
| +  harmonic
| x  Mute note
===============================================================
Добавлено: 31.07.2012
Другие материалы по этой песне:
  • Аккорды и текст

Страница создана 31.07.2012
http://primanota.ru/bloodsoaked/forever-damned-chords.htm
Привет, Гость.
Предлагаем пройти революционный курс по гитаре.
Подарок от PrimaNota.Ru, забирай!