PrimaNota.ru - самый крупный в мире бесплатный архив песенных текстов, аккордов, табулатур и нот


Bloodsimple - Out To Get You - текст песни, таба, видео

Регистрация Запомнить меня
Войти через:  Facebook Google Twitter Vk Yandex Mail.ru

Bloodsimple - Out To Get You - текст песни, таба, видео

Печатать
Просмотров: 207
Авторы: Kyle Sanders, Nick Rowe, Mike Kennedy, Tim Williams

Artist: Bloodsimple
Song: Out To Get You
Tuning: Standard

|------------------------|--------------------------|
|------------------------|--------------------------|
|------------------------|--------------------------|
|----6-6--6-6--9-6-9-6-9-|-8-8--8-8-----------------|
|----4-4--4-4--7-4-7-4-7-|-6-6--6-6-----------------|
|------------------------|----------7-4-4-6-4-4-6-4-|

|------------------------|--------------------------|
|------------------------|--------------------------|
|------------------------|--------------------------|
|----6-6--6-6--9-6-9-6-9-|-5-5--5-5-----------------|
|----4-4--4-4--7-4-7-4-7-|--------------------------|
|------------------------|----------7-4-4-6-4-4-5~~-|

|------------------------|--------------------------|
|------------------------|--------------------------|
|------------------------|--------------------------|
|-----6-7--4-6---2-4-----|-----6-7--4-6---2-4--4-2--|
|--------------------2-4-|---------------------2-4--|
|------------------------|--------------------------|

|------------------------|--------------------------|
|------------------------|--------------------------|
|------------------------|--------------------------|
|-----6-7--4-6---2-4-----|-----6-7--4-6---2-4-------|
|--------------------2-4-|---------------------2-4--|
|------------------------|-----------------------2--|

|--------------------------------|---------------------------------|
|--------------------------------|---------------------------------|
|--------------------------------|---------------------------------|
|--------------------------------|---------------------------------|
|--4-4-4-4-4-4-4-4-4-4-4-4-4-4-4-|-2-2-2-2-2-2-2-2-2-2-2-2-2-2-2-2-|
|--2-2-2-2-2-2-2-2-2-2-2-2-2-2-2-|-0-0-0-0-0-0-0-0-0-0-0-0-0-0-0-0-|
P.M.................................................................

|------------------------|--------------------------|
|------------------------|--------------------------|
|------------------------|--------------------------|
|-----6-7--4-6---2-4-----|-----6-7--4-6---2-4-------|
|--------------------2-4-|---------------------2-4--|
|------------------------|-----------------------2--|

|--------------------------------|---------------------------------|
|--------------------------------|---------------------------------|
|--------------------------------|---------------------------------|
|--------------------------------|---------------------------------|
|--4-4-4-4-4-4-4-4-4-4-4-4-4-4-4-|-2-2-2-2-2-2-2-2-2-2-2-2-2-2-2-2-|
|--2-2-2-2-2-2-2-2-2-2-2-2-2-2-2-|-0-0-0-0-0-0-0-0-0-0-0-0-0-0-0-0-|
P.M.................................................................

|-------------------------|-----------------------|
|-------------------------|-----------------------|
|-----------P.H-----------|--------P.H------------|
|-----6-7--4-6--2-4--P.H--|--6-7--4-6---2-4-------|
|-------------------2-4---|-----------------2-4---|
|-------------------------|-------------------2---|

|---------------------------------|----------------------------------|
|---------------------------------|----------------------------------|
|---------------------------------|----------------------------------|
|---------------------------------|-(11's not 1's)-------------------|
|-4-4-4-4-4-4-4-4-7-7-7-7-7-7-7-7-|-1111111111111111-9-9-9-9-9-9-9-9-|
|-2-2-2-2-2-2-2-2-5-5-5-5-5-5-5-5-|-9-9-9-9-9-9-9-9--7-7-7-7-7-7-7-7-|

|---------------------------------|-------------------------------|
|---------------------------------|-------------------------------|
|---------------------------------|-------------------------------|
|---------------------------------|-------------------------------|
|-4-4-4-4-4-4-4-4-7-7-7-7-7-7-7-7-|-2-2-2-2-2-2-2-2-2-2-2-2--2--2-|
|-2-2-2-2-2-2-2-2-5-5-5-5-5-5-5-5-|-0-0-0-0-0-0-0-0-0-0-0-0--0--0-|

|---------------------------------|----------------------------------|
|---------------------------------|----------------------------------|
|---------------------------------|----------------------------------|
|---------------------------------|-(11's not 1's)-------------------|
|-4-4-4-4-4-4-4-4-7-7-7-7-7-7-7-7-|-1111111111111111-9-9-9-9-9-9-9-9-|
|-2-2-2-2-2-2-2-2-5-5-5-5-5-5-5-5-|-9-9-9-9-9-9-9-9--7-7-7-7-7-7-7-7-|

|---------------------------------|--------------------------|
|---------------------------------|--------------------------|
|---------------------------------|--------------------------|
|---------------------------------|--------------------------|
|-4-4-4-4-4-4-4-4-4-4-4-4-4-4-4-4-|-4/6--4/6--4/6--4/6--9-9--|
|-2-2-2-2-2-2-2-2-2-2-2-2-2-2-2-2-|-2/4--2/4--2/4--2/4--7-7--|

|------------------------|--------------------------|
|------------------------|--------------------------|
|------------------------|--------------------------|
|----6-6--6-6--9-6-9-6-9-|-8-8--8-8-----------------|
|----4-4--4-4--7-4-7-4-7-|-6-6--6-6-----------------|
|------------------------|----------7-4-4-6-4-4-6-4-|

|------------------------|--------------------------|
|------------------------|--------------------------|
|------------------------|--------------------------|
|----6-6--6-6--9-6-9-6-9-|-5-5--5-5-----------------|
|----4-4--4-4--7-4-7-4-7-|--------------------------|
|------------------------|----------7-4-4-6-4-4-5~~-|

|------------------------|--------------------------|
|------------------------|--------------------------|
|------------------------|--------------------------|
|----6-6--6-6--9-6-9-6-9-|-8-8--8-8-----------------|
|----4-4--4-4--7-4-7-4-7-|-6-6--6-6-----------------|
|------------------------|----------7-4-4-6-4-4-6-4-|

|------------------------|--------------------------|
|------------------------|--------------------------|
|------------------------|--------------------------|
|----6-6--6-6--9-6-9-6-9-|-5-5--5-5-----------------|
|----4-4--4-4--7-4-7-4-7-|--------------------------|
|------------------------|----------7-4-4-6-4-4-5~~-|

|------------------------|--------------------------|
|------------------------|--------------------------|
|------------------------|--------------------------|
|-----6-7--4-6---2-4-----|-----6-7--4-6---2-4--4----|
|--------------------2-4-|---------------------2-4--|
|------------------------|-----------------------2--|

|--------------------------------|---------------------------------|
|--------------------------------|---------------------------------|
|--------------------------------|---------------------------------|
|--------------------------------|---------------------------------|
|--4-4-4-4-4-4-4-4-4-4-4-4-4-4-4-|-2-2-2-2-2-2-2-2-2-2-2-2-2-2-2-2-|
|--2-2-2-2-2-2-2-2-2-2-2-2-2-2-2-|-0-0-0-0-0-0-0-0-0-0-0-0-0-0-0-0-|
P.M.................................................................

|-------------------------|-----------------------|
|-------------------------|-----------------------|
|-----------P.H-----------|--------P.H------------|
|-----6-7--4-6--2-4--P.H--|--6-7--4-6---2-4-------|
|-------------------2-4---|-----------------2-4---|
|-------------------------|-------------------2---|

|--------------------------------|---------------------------------|
|--------------------------------|---------------------------------|
|--------------------------------|---------------------------------|
|--------------------------------|---------------------------------|
|--4-4-4-4-4-4-4-4-4-4-4-4-4-4-4-|-2-2-2-2-2-2-2-2-2-2-2-2-2-2-2-2-|
|--2-2-2-2-2-2-2-2-2-2-2-2-2-2-2-|-0-0-0-0-0-0-0-0-0-0-0-0-0-0-0-0-|
P.M.................................................................

|-------------------------|-----------------------|
|-------------------------|-----------------------|
|-----------P.H-----------|--------P.H------------|
|-----6-7--4-6--2-4--P.H--|--6-7--4-6---2-4-------|
|-------------------2-4---|-----------------2-4---|
|-------------------------|-------------------2---|

|---------------------------------|----------------------------------|
|---------------------------------|----------------------------------|
|---------------------------------|----------------------------------|
|---------------------------------|-(11's not 1's)-------------------|
|-4-4-4-4-4-4-4-4-7-7-7-7-7-7-7-7-|-1111111111111111-9-9-9-9-9-9-9-9-|
|-2-2-2-2-2-2-2-2-5-5-5-5-5-5-5-5-|-9-9-9-9-9-9-9-9--7-7-7-7-7-7-7-7-|

|---------------------------------|-------------------------------|
|---------------------------------|-------------------------------|
|---------------------------------|-------------------------------|
|---------------------------------|-------------------------------|
|-4-4-4-4-4-4-4-4-7-7-7-7-7-7-7-7-|-2-2-2-2-2-2-2-2-2-2-2-2--2--2-|
|-2-2-2-2-2-2-2-2-5-5-5-5-5-5-5-5-|-0-0-0-0-0-0-0-0-0-0-0-0--0--0-|

|---------------------------------|----------------------------------|
|---------------------------------|----------------------------------|
|---------------------------------|----------------------------------|
|---------------------------------|-(11's not 1's)-------------------|
|-4-4-4-4-4-4-4-4-7-7-7-7-7-7-7-7-|-1111111111111111-9-9-9-9-9-9-9-9-|
|-2-2-2-2-2-2-2-2-5-5-5-5-5-5-5-5-|-9-9-9-9-9-9-9-9--7-7-7-7-7-7-7-7-|

|---------------------------------|--------------------------|
|---------------------------------|--------------------------|
|---------------------------------|--------------------------|
|---------------------------------|--------------------------|
|-4-4-4-4-4-4-4-4-4-4-4-4-4-4-4-4-|-4/6--4/6--4/6--4/6--9-9--|
|-2-2-2-2-2-2-2-2-2-2-2-2-2-2-2-2-|-2/4--2/4--2/4--2/4--7-7--|

|------------------------|--------------------------|
|------------------------|--------------------------|
|------------------------|--------------------------|
|----6-6--6-6--9-6-9-6-9-|-8-8--8-8-----------------|
|----4-4--4-4--7-4-7-4-7-|-6-6--6-6-----------------|
|------------------------|----------7-4-4-6-4-4-6-4-|

|------------------------|--------------------------|
|------------------------|--------------------------|
|------------------------|--------------------------|
|----6-6--6-6--9-6-9-6-9-|-5-5--5-5-----------------|
|----4-4--4-4--7-4-7-4-7-|--------------------------|
|------------------------|----------7-4-4-6-4-4-5~~-|

|------------------------|--------------------------|
|------------------------|--------------------------|
|------------------------|--------------------------|
|----6-6--6-6--9-6-9-6-9-|-8-8--8-8-----------------|
|----4-4--4-4--7-4-7-4-7-|-6-6--6-6-----------------|
|------------------------|----------7-4-4-6-4-4-6-4-|

|------------------------|--------------------------|
|------------------------|--------------------------|
|------------------------|--------------------------|
|----6-6--6-6--9-6-9-6-9-|-5-5--5-5-----------------|
|----4-4--4-4--7-4-7-4-7-|--------------------------|
|------------------------|----------7-4-4-6-4-4-5~~-|

|----------------------|
|----------------------|
|----------------------|
|----------------------|
|-----9-9-6-8-8-6-7~~~-|
|-----7-7-4-6-6-4-5~~~-|

|----------------------------|
|----------------------------|
|----------------------------|
|----------------------------|repeat 4x
|--9-11-11/12-12/7--7/5--5/7-|
|--7/9--9/10--10/5--5/3--3/5-|

|-----------------------|
|-----------------------|
|-----------------------|
|-----------------------|repeat 4x
|--4-4-2--4-4--2-4-4/5--|
|--2-2-0--2-2--0-2-2/3--|

|------------------------------|
|------------------------------|
|------------------------------|
|------------------------------|repeat 4x
|------------------------------|
|--3-2-0-5-3-0-3-2-0-3-2-0-0-2-|

|------------------------|--------------------------|
|------------------------|--------------------------|
|------------------------|--------------------------|
|----6-6--6-6--9-6-9-6-9-|-8-8--8-8-----------------|
|----4-4--4-4--7-4-7-4-7-|-6-6--6-6-----------------|
|------------------------|----------7-4-4-6-4-4-6-4-|

|------------------------|--------------------------|
|------------------------|--------------------------|
|------------------------|--------------------------|
|----6-6--6-6--9-6-9-6-9-|-5-5--5-5-----------------|
|----4-4--4-4--7-4-7-4-7-|--------------------------|
|------------------------|----------7-4-4-6-4-4-5~~-|

|------------------------|--------------------------|
|------------------------|--------------------------|
|------------------------|--------------------------|
|----6-6--6-6--9-6-9-6-9-|-8-8--8-8-----------------|
|----4-4--4-4--7-4-7-4-7-|-6-6--6-6-----------------|
|------------------------|----------7-4-4-6-4-4-6-4-|

|------------------------|--------------------------|
|------------------------|--------------------------|
|------------------------|--------------------------|
|----6-6--6-6--9-6-9-6-9-|-5-5--5-5-----------------|
|----4-4--4-4--7-4-7-4-7-|--------------------------|
|------------------------|----------7-4-4-6-4-4-5~~-|

|-----------------------------------|---------------------------------|
|-----------------------------------|---------------------------------|
|-----------------------------------|---------------------------------|
|-----------------------------------|---------------------------------|
|-4-4-4-4-4-4-4-4-5-5-5-5-5-5-5-5-5-|-2-2-2-2-2-2-2-2-2-2-2-2-2-2-2-2-|
|-2-2-2-2-2-2-2-2-3-3-3-3-3-3-3-3-3-|-0-0-0-0-0-0-0-0-0-0-0-0-0-0-0-0-|

|---------------------------------|---------------------------------|
|---------------------------------|---------------------------------|
|---------------------------------|---------------------------------|
|---------------------------------|---------------------------------|
|-4-4-4-4-4-4-4-4-5-5-5-5-5-5-5-5-|-2-2-2-2-2-2-2-2-2-2-2-2-2-2-2-2-|
|-2-2-2-2-2-2-2-2-3-3-3-3-3-3-3-3-|-0-0-0-0-0-0-0-0-0-0-0-0-0-0-0-0-|

|---------------------------------|---------------------------------|
|---------------------------------|---------------------------------|
|---------------------------------|---------------------------------|
|-6-6-6-6-6-6-6-6-9-9-9-9-9-9-9-9-|-8-8-8-8-8-8-8-8-8-8-8-8-8-8-8-8-|
|-4-4-4-4-4-4-4-4-7-7-7-7-7-7-7-7-|-6-6-6-6-6-6-6-6-6-6-6-6-6-6-6-6-|
|---------------------------------|---------------------------------|

|---------------------------------|---------------------------------|
|---------------------------------|---------------------------------|
|---------------------------------|---------------------------------|
|-6-6-6-6-6-6-6-6-9-9-9-9-9-9-9-9-|-8-8-8-8-8-8-8-8-8-8-8-8-8-8-8-8-|
|-4-4-4-4-4-4-4-4-7-7-7-7-7-7-7-7-|-6-6-6-6-6-6-6-6-6-6-6-6-6-6-6-6-|
|---------------------------------|---------------------------------|

|------------------------------|
|------------------------------|
|------------------------------|
|------------------------------|repeat 4x
|------------------------------|
|--3-2-0-5-3-0-3-2-0-3-2-0-0-2-|
Добавлено: 22.03.2012
Другие материалы по этой песне:

Страница создана 22.03.2012
http://primanota.ru/bloodsimple/out-to-get-you-chords.htm
Привет, Гость.
Предлагаем пройти революционный курс по гитаре.
Подарок от PrimaNota.Ru, забирай!