PrimaNota.ru - самый крупный в мире бесплатный архив песенных текстов, аккордов, табулатур и нот


Bloodsimple - Falling Backwards - текст песни, бас-таба, видео

Регистрация Запомнить меня
Войти через:  Facebook Google Twitter Vk Yandex Mail.ru

Bloodsimple - Falling Backwards - текст песни, бас-таба, видео

Печатать
Просмотров: 177
----------------------------------------------------------------------------
			     Bloodsimple - Falling Backwards
----------------------------------------------------------------------------

Tabbed By: Jeremy Walker 
e-mail: Jezza1764@hotmail.com

Tuning: Drop A# (A#,F ,A#,D#)

Intro
|-----------------------------------------------------|
|-----------------------------------------------------|
|-----------------------------------------------------|
|0-0-0-0~-----0-0-0-0~-----0-0-0-0~-------------------| x 2
                                         ^^^^^^^
                                    Not sure about this bit


Verse

|-----------------------------------------------------|
|-----------------------------------------------------|
|-----------------------------------------------------|
|2-4--0-2-4--0-2-4--0-2-4--0-2-4--0-2-4--0-2-4-0-0-2-5| x 4

Pre-Chorus

|-----------------------------------------------------|
|-----------------------------------------------------|
|-----------------------------------------------------|
|-----------------------------------------------------|

Chorus

|-----------------------------------------------------|
|-----------------------------------------------------|
|-----------------------------------------------------|
|0-0-0-1/-----0-0-0-1/-----0-0-0-1/-------------------|

Bridge

|-----------------------------------------------------|
|-----------------------------------------------------|
|------65-54-43-32~---------65-54-43-32~--------------|
|0-0-0---0--0--0------0-0-0---0--0--0-----------------|

Outro

|-----------------------------------------------------|
|-----------------------------------------------------|
|-----------------------------------------------------|
|000000(12)-----000000(12)-----000000(12)-------------|

Few bits missing, will do them very soon!
Добавлено: 24.02.2012
Другие материалы по этой песне:
  • Аккорды и текст

Страница создана 24.02.2012
http://primanota.ru/bloodsimple/falling-backwards-chords.htm
Привет, Гость.
Предлагаем пройти революционный курс по гитаре.
Подарок от PrimaNota.Ru, забирай!