PrimaNota.ru - самый крупный в мире бесплатный архив песенных текстов, аккордов, табулатур и нот


Bloodsimple - Dead Man Walking - таба, видео

Регистрация Запомнить меня
Войти через:  Facebook Google Twitter Vk Yandex Mail.ru

Bloodsimple - Dead Man Walking - таба, видео

Печатать
Просмотров: 132
 
deadman walking by bloodsimple

tuning: drop Db (drop D in half step)

well here goes nothin..


intro: x4

Gtr 1

Eb|------------------------------------------------------------------------|
Bb|------------------------------------------------------------------------|
Gb|------------------------------------------------------------------------|
Db|--121213131010-0-12-121213131010-0-12-121213131010-0-12-121213131010-4-3|
Ab|---------------------------------------------------------------------4-3|
Db|---------------------------------------------------------------------4-3|



Gtr 2

Eb|------------------------------------------------------------------------|
Bb|------------------------------------------------------------------------|
Gb|------------------------------------------------------------------------|
Db|---------------------------------------------------------------------4-3|
Ab|---------------------------------------------------------------------4-3|
Db|---------------------------------------------------------------------4-3|



rythim fill 

leading into main riff (both guitars)


Db|----4-3-----3-2-----2-1|
Ab|----4-3-----3-2-----2-1|
Db|-00-4-3--00-3-2--00-2-1|
    **      **      **







Main Riff w/ both guitars


Eb|-----------------------------------------------------------|
Bb|-----------------------------------------------------------|
Gb|-----------------------------------------------------------|
Db|-------------------------------------------------------4-3-|
Ab|--556633-0-5-556633-0-5-556633-0-5-556633-0-5-556633-0-4-3-|
Db|-------------------------------------------------------4-3-|



Chorus Riff (comes before verse riff)



Eb|---------------------|
Bb|---------------------|
Gb|---------------------|
Db|---------------------|
Ab|----4-3----3-2----2-1|
Db|-00-4-3-00-3-2-00-2-1|
    **     **     **
Gtr 1                                        Rhy Fill 

Eb|-------------------------------|       |-----------------|
Bb|-------------------------------|       |-----------------|
Gb|-------------------------------|       |-----------------|
Db|-------------------------------|  X3   |-3-0-10-0-3------|
Ab|--5----5--5----3---------------|       |-3-0-10-0-3----5-|
Db|-0--5h7--0--3h5----------------|       |-3-0-10-0-3-5h7--|


Gtr 2

Eb|----------------------------------------------------------|
Bb|----------------------------------------------------------|
Gb|----------------------------------------------------------|
Db|----------------------------------------------------------|
Ab|---121212-10-8-5-3-5----888-7-5-3-0-3---121212-10-8-5-3-5-|
Eb|-0--------------------0---------------0-------------------|

rhy fill 

Db|-3-0-10-0-3-0------|
Ab|-3-0-10-0-3-0----5-|
Db|-3-0-10-0-3-0-5h7--|


Verse Riff (both guitars)


Eb|--------------------------------------------------------------------|
Bb|-3-3-------3--------------------------------------------------------|
Gb|-2-2-------2-----3-3-------3-----4-4-------4-------5-5-------7------|
Db|-0-0-------0-----0-0-------0-----2-2-------2-------3-3-------5------| x2
Ab|-0-0-------0-----0-0-------0-----2-2-------2-------3-3-------5-----5|
Eb|-0-0-0-0-0-0-0-0-0-0-0-0-0-0-0-0-2-2-0-0-0-2-0-0-0-3-3-0-0-0-5--5h7-|
        * * *   * *     * * *   * *     * * *   * * *     * * *  
Pre-Chorus Riff

Eb|--------------------------------------------------------------|
Bb|--------------------------------------------------------------|
Gb|--------------------------------------------------------------|
Db|--7-7-------7-----7-7-------7-----7-7-------7-----7-7-----7-8-|  X2
Ab|--7-7-------7-----8-8-------8-----9-9-------9-----1010----7-8-|
Eb|--7-7-7-7-7-7-7-7-7-7-7-7-7-7-7-7-7-7-7-7-7-7-7-7-7-7-7-7-7-8-|
         * * *   * *     * * *   * *     * * *   * *     * *

Db|-10-7-5-7-10-7-11-7-|
Ab|-10-7-5-7-10-7-11-7-|
Db|-10-7-5-7-10-7-11-7-|



song order:
intro
rhythm fill
main riff
rhythm fill
chorus riff(gtr 1)
rhythm fill
verse riff
pre-chorus riff
chorus riff
rhythm fill
verse riff
pre-chorus riff
chorus riff

Добавлено: 25.03.2012
Другие материалы по этой песне:

Страница создана 14.03.2012
http://primanota.ru/bloodsimple/dead-man-walking-chords.htm
Привет, Гость.
Предлагаем пройти революционный курс по гитаре.
Подарок от PrimaNota.Ru, забирай!