PrimaNota.ru - самый крупный в мире бесплатный архив песенных текстов, аккордов, табулатур и нот


Bloodsimple - Blood In Blood Out - текст песни, таба, видео

Регистрация Запомнить меня
Войти через:  Facebook Google Twitter Vk Yandex Mail.ru

Bloodsimple - Blood In Blood Out - текст песни, таба, видео

Печатать
Просмотров: 220
Atrist: Bloodsimple
Song: Blood In Blood Out
Album: A Cruel World
Tunning: Drop A# (A# F A# D# G C))
Tabber: Majin Gaara

This is a really short song, more like just 
a jam song more than anything else. Note to all
that this is more of a advanced song becuase of the 
speed they are playing not the leads but how fast
the strums and the chord progressions are. 
Anyhow, have fun!

Tab Legend:
^ - 1/4 Bend
. - Palm Muted

INTRO/VERSE
C |-------------------------------|
G |-------------------------------|
D#|-------------------------------|
A#|-------------------------------|
F |-9-12-12-9-12-7-10-------------|
A#|-9-12-12-9-12-7-10-------------| X9

PRE CHORUS
|-----------------|
|-----------------|
|-----------------|
|-----------------|
|-----------------|
|-9/10\9-9/10\9-7-| X7

CHORUS
|-----------------------------------------------|
|-----------------------------------------------|
|-----------------------------------------------|
|-----------------------------------------------|
|-9-7-9--7--9-7-9--7----9-7-9--7--9-7-9--9-10-9-|
|-9-7-9--7--9-7-9--7----9-7-9--7--9-7-9--9-10-9-| X2
         .                     .

Play INTRO/VERSE X7

Play PRE CHORUS X8

Play CHORUS X2

BRIDGE
|---------------------------------------------------------|
|---------------------------------------------------------|
|---------------------------------------------------------|
|-0-0-0-12-10-12--0-0-0-12-10-12--0-0-0-12-10-12-3--5-3-5-|
|---------------------------------------------------------|
|---------------------------------------------------------| X2
  . . .           . . .           . . .       

After Guitar 1 plays the above riff X1, kick in with this
|---------------------------------------------------------|
|---------------------------------------------------------|
|-------14-12-14--------14-12-14--------14-12-14----------|
|---------------------------------------------------------|
|---------------------------------------------------------|
|---------------------------------------------------------|


|---------------------------------------------------------|
|---------------------------------------------------------|
|---------------------------------------------------------|
|---------------------------------------------------------|
|-0--10-12-10-12--0-10-12-10-12--0--10-12-10-12--3--5-3-5-|
|-0--10-12-10-12--0-10-12-10-12--0--10-12-10-12--3--5-3-5-| X3

|---------------------------------------------------------|
|---------------------------------------------------------|
|---------------------------------------------------------|
|------------------------------------------------3^-------|
|-0--10-12-10-12--0-10-12-10-12--0--10-12-10-12-----------|
|-0--10-12-10-12--0-10-12-10-12--0--10-12-10-12-------5^--|

Play CHORUS X1

ENDING CHORUS
|---------------------------------------------|
|---------------------------------------------|
|---------------------------------------------|
|---------------------------------------------|
|-9-7-9--7--9-7-9--7----9-7-9--7--9-7-9-x-x-x-|
|-9-7-9--7--9-7-9--7----9-7-9--7--9-7-9-x-x-x-| 

OUTRO
|------------------------------------------------------------|
|------------------------------------------------------------|
|------------------------------------------------------------|
|------------------------------------------------------------|
|-2-3-0-0-2-3-2-3-0-0-2-3-7h8--2-3-0-0-2-3-2-3-0-0-2-3-x-x-x-|
|-2-3-0-0-2-3-2-3-0-0-2-3------2-3-0-0-2-3-2-3-0-0-2-3-x-x-x-| X2
         
Добавлено: 26.04.2012
Другие материалы по этой песне:
  • Аккорды и текст

Страница создана 26.04.2012
http://primanota.ru/bloodsimple/blood-in-blood-out-chords.htm
Привет, Гость.
Предлагаем пройти революционный курс по гитаре.
Подарок от PrimaNota.Ru, забирай!