PrimaNota.ru - самый крупный в мире бесплатный архив песенных текстов, аккордов, табулатур и нот


Bloodnstuff - Bloodnstuff - таба, видео

Регистрация Запомнить меня
Войти через:  Facebook Google Twitter Vk Yandex Mail.ru

Bloodnstuff - Bloodnstuff - таба, видео

Печатать
Просмотров: 83
-------------------------------------------------------------------------------
                             Bloodnstuff - Bloodnstuff
-------------------------------------------------------------------------------
Tuning: standard

0:00
e|-------------------------------------------------------------|
B|-------------------------------------------------------------|
G|----4p3p0h4p3p0-------------------4p3p0h4p3p0----------------|
D|-------------------4p3p0h4p3p0-------------------4p3p0h4p3p0-|
A|-2--------------2--------------2--------------2--------------|
E|-------------------------------------------------------------|

e|-------------------------------------------------------------|
B|-------------------------------------------------------------|
G|----4p3p0h4p3p0-------------------4p3p0h4p3p0----------------|
D|-------------------4p3p0h4p3p0-------------------4p3p0h4p3p0-|
A|-------------------------------------------------------------|
E|-3--------------3--------------3--------------3--------------|

(Octave pedal on)
e|-------------------------------------------------------------|
B|-------------------------------------------------------------|
G|----4p3p0h4p3p0-------------------4p3p0h4p3p0----------------|
D|-------------------4p3p0h4p3p0-------------------4p3p0h4p3p0-|
A|-2~~------------2~~------------2~~------------2~~------------|
E|-------------------------------------------------------------|

e|-------------------------------------------------------------|
B|-------------------------------------------------------------|
G|----4p3p0h4p3p0-------------------4p3p0h4p3p0----------------|
D|-------------------4p3p0h4p3p0-------------------4p3p0h4p3p0-|
A|-------------------------------------------------------------|
E|-3~~------------3~~------------3~~------------3~~------------|

0:13 (Octave pedal off)
e|------------------------------------------|
B|------------------------------------------|
G|------------------------------------------|
D|--------------------------------------0-2-|
A|-2---2---2---2-0------------------0-2-----| x4
E|------------------3---3---3---3-----------|

0:35
e|--------------------------------------------------------------------------------------|
B|--------------------------------------------------------------------------------------|
G|-------------------2-4---------------------0----------0----------0--------------------|
D|--------0-2----2-4------------0-2----0-2-4------0-2-4------0-2-4------------0-2-0-----|
A|-2~~0-2-----2~~--------2~~0-2-----2~~---------------------------------0-2-4-------4-0-|
E|---------------------------------------------3~~--------2~~--------0~~----------------|

0:44
e|------------------------------------------|
B|------------------------------------------|
G|------------------------------------------|
D|--------------------------------------0-2-|
A|-2---2---2---2-0------------------0-2-----| x4
E|------------------3---3---3---3-----------|

1:06
e|--------------------------------------------------------------------------------------|
B|--------------------------------------------------------------------------------------|
G|-------------------2-4---------------------0----------0----------0--------------------|
D|--------0-2----2-4------------0-2----0-2-4------0-2-4------0-2-4------------0-2-0-----|
A|-2~~0-2-----2~~--------2~~0-2-----2~~---------------------------------0-2-4-------4-0-| x2
E|---------------------------------------------3~~--------2~~--------0~~----------------|

1:22 (Octave pedal on)
e|------------------------------------------|
B|------------------------------------------|
G|------------------------------------------|
D|--------------------------------------0-2-|
A|-2---2---2---2-0------------------0-2-----| x4
E|------------------3---3---3---3-----------|

1:45 (Octave pedal off)
e|---------------------------------------------|
B|---------------------------------------------|
G|-------------------3-5-------------------3-5-|
D|--------1-3----3-5------------1-3----3-5-----|
A|-3~~1-3-----3~~--------3~~1-3-----3~~--------| x4
E|---------------------------------------------|

2:02 (Octave pedal on)
e|---------------------------------------------|
B|---------------------------------------------|
G|-------------------3-5-------------------3-5-|
D|--------1-3----3-5------------1-3----3-5-----|
A|-3~~1-3-----3~~--------3~~1-3-----3~~--------| x4
E|---------------------------------------------|

2:17 (Octave pedal on)
e|------------------------------------------|
B|------------------------------------------|
G|------------------------------------------|
D|--------------------------------------1-3-|
A|-3---3---3---3-1------------------1-3-----| x3
E|------------------4---4---4---4-----------|

2:38
e|---------------------------------------|
B|---------------------------------------|
G|---------------------------------------|
D|---------------------------------------|
A|-3---3---3---3-1-----------------------|
E|------------------4~~~~~~~~~~~~~~~~~~--|

| h  hammer-on
| p  pull-off
| ~  hold
===============================================================================
Добавлено: 28.12.2015
Другие материалы по этой песне:
  • Аккорды и текст

Страница создана 28.12.2015
http://primanota.ru/bloodnstuff/bloodnstuff-chords.htm
Привет, Гость.
Предлагаем пройти революционный курс по гитаре.
Подарок от PrimaNota.Ru, забирай!